1. Welcome to the premier online community and classifieds for bass players!

    Register a free account to post, remove lots of ads, and more!

Chad and Flea Drum Jam tab

Discussion in 'Tablature [BG]' started by JLW, Mar 6, 2007.


  1. Man I've been trying to tab that slap riff in the beginning for the last half hour and can't do it for the life of me. between all the muted notes and staccatto notes, it's really tough.

    Can anyone give me a hand on it?

    Here's a link.

    http://video.google.com/videoplay?docid=1234513755225657627&q=bass+guitar

    If anyone can tab it I'd be real grateful.

    Or if anyone knows of a link to a tab of it, that would be awesome too. I tried ultimate-guitar.com and no luck. I'll try a few other sites though.
     
  2. Guess nobody's up to the task. I don't blame you.
     
  3. slapslappopslap

    slapslappopslap

    Nov 22, 2006
    NZ
    ill have a look but no promises
     
  4. slapslappopslap

    slapslappopslap

    Nov 22, 2006
    NZ
    ill have a go this weekend, but right now i have no time sorry.
     
  5. Sponsored by:

  6. I got something like,


    G-----------------------
    D--------------7----------
    A--------7-------7----------
    E--0-x-x---5h7-------------------

    But I felt that it sounded so off that I didn't even bother with the rest. It's a pretty simple lick. If it was played slow I could get it no problem.

    I figured I could use this riff to jam with my drummer.

    Even if you could get the opening riff part that would eb awesome. I can probably get most of the fingerstyle stuff he does, and the slower slap riff he does towards the end. That opening riff is wicked fast and hard to tab for me, though.
     
  7. Joe Nerve

    Joe Nerve

    Oct 7, 2000
    New York City
    Disclosures:
    Endorsing artist: Musicman basses, Hipshot products
    I've never written any tab before so I don't know if this is gonna fly or not. I'm on a Chili Pepper learning spree this week so I figured I'd give it a go. I'll record it slowly and post for you to work with the tab. I think this is pretty accurate for the first measure or 2, depending on how you're counting.

    ------------------------------------
    ------------------------------------
    -----x-x------------x--4h5------------
    -0-x--x-0-----5h7-x-----------------


    [edit after listening to my recording and the vid again] just listened back to the original in the vid. i think i'm slightly off - that 2nd 0 may actually be an A (5). something like that, anyhow. :)
     
  8. If you listen to the recording there is clearly an octave in the beginning.

    I listened to the first riff and here's what I got. Try playing it.

    G--------------------------
    D -----------------7-------
    A--------7 ----------5h7---
    E--0-x-x---0h5-x-----------

    Now I just gotta get the second part of the riff where he does some retardedly fast mutes. After I can do that I can show it off to everyone. :)
     
  9. Joe Nerve

    Joe Nerve

    Oct 7, 2000
    New York City
    Disclosures:
    Endorsing artist: Musicman basses, Hipshot products
    I think he alternates btwn the octave and the D. 4h5 and 5h7.

    I've fried my brain enough on this though. :) It's easier to figure this stuff out if when you can slow it down.
     
  10. Hahaha, if anyone can help me out with the second part right after this:

    G--------------------------
    D -----------------7-------
    A--------7 ----------5h7---
    E--0-x-x---0h5-x-----------


    That would be awesome. Definitely tough to tab.
     
  11. I recall slappopslap saying they'd help me out with this on the weekend.

    Here's what I got so far, slappopslap. Feel free to expand upon it or change it if you think it's wrong.

    I got the very first verse (when he first starts playing)

    G---------------------------------------------------
    D -----------------7------- --x----------7---7---5h7---
    A--------7 ----------5h7-------5-5h7--5---5---5-----5-5h7
    E--0-x-x---0h5-x----------x-x--------------------------

    I feel like the second half of that is a bit off but he palys so fast that it's hard to tell exactly what he's doing. At the same time that's a benefit because nobody would be able to tell if you were playing it wrong at that speed.
     
  12. slapslappopslap

    slapslappopslap

    Nov 22, 2006
    NZ
    G|--------------------------------------------|
    D|------------------------5----X-------------|
    A|---------7----7-----------------5h7-----5-|
    E|--0---X----X----5h7-X----X----------X----|
    1 2 3 4

    thats what i just figured out on my acoustic im driving to school to get my bass now ill do more soon.
     
  13. slapslappopslap

    slapslappopslap

    Nov 22, 2006
    NZ
    G|---------------------------------|---------------------------------|
    D|-------------------5---X---------|---X---X-------5---X-------5-----|
    A|-------7---7-------------5h7---5-|---------------------5h7-7---5h7-|
    E|-0---X---X---5h7-X---X-------X---|-X---X---5h7-X---X---------------|
    ___1_+_+_+_2_+_+_+_3_+_+_+_4_+_+_+___1_+_+_+_2_+_+_+_3_+_+_+_4_+_+_+_

    G|---------------------------------|---------------------------------|
    D|-------------------5---X---------|---X---X-------5---X-------X-----|
    A|-------7---7-------------4h5---5-|---------5h7-X---X---5h7-X---5h7-|
    E|-0---X---X---5h7-X---X-------X---|-X---X---------------------------|
    ___1_+_+_+_2_+_+_+_3_+_+_+_4_+_+_+___1_+_+_+_2_+_+_+_3_+_+_+_4_+_+_+_

    G|---------------------------------|---------------------------------|
    D|-------------------5---X---------|---X---X-------5---X-------X-----|
    A|-------7---7-------------5h7---5-|---------5h7-X---X---5h7-X---5---|
    E|-0---X---X---5h7-X---X-------X---|-X---X---------------------------|
    ___1_+_+_+_2_+_+_+_3_+_+_+_4_+_+_+___1_+_+_+_2_+_+_+_3_+_+_+_4_+_+_+_

    G|---------------------------------|---7---7---6---6---5---5---4---4-|
    D|-------------------5---X---------|---------------------------------|
    A|-------7---7-------------5h7---5-|-5---5---4---4---3---3---2---2---|
    E|-0---X---X---5h7-X---X-------X---|---------------------------------|
    ___1_+_+_+_2_+_+_+_3_+_+_+_4_+_+_+___1_+_+_+_2_+_+_+_3_+_+_+_4_+_+_+_

    G|---------------------------------|---------------------------------|
    D|-------------------5---X---------|---X---X-------5---X-------X-----|
    A|-------7---7-------------5h7---5-|---------------------5h7-X---5---|
    E|-0---X---X---5h7-X---X-------X---|-X---X---5h7-X---X---------------|
    ___1_+_+_+_2_+_+_+_3_+_+_+_4_+_+_+___1_+_+_+_2_+_+_+_3_+_+_+_4_+_+_+_

    G|---------------------------------|-------7---X-------5-------6-----|
    D|-------------------5---X---------|---------------------------------|
    A|-------7---7-------------5h7---5-|-5---5---X---3---3---4---4---2---|
    E|-0---X---X---5h7-X---X-------X---|---------------------------------|
    ___1_+_+_+_2_+_+_+_3_+_+_+_4_+_+_+___1_+_+_+_2_+_+_+_3_+_+_+_4_+_+_+_

    G|---------------------------------|---------------------------------|
    D|-------------------X-----4---3---|-------------------5---5---X-----|
    A|-------7---7---------------------|-------7---7-5h7-X---X---X---5h7-|
    E|-0---X---X---5h7-X---0-----------|-0---X---X-----------------------|
    ___1_+_+_+_2_+_+_+_3_+_+_+_4_+_+_+___1_+_+_+_2_+_+_+_3_+_+_+_4_+_+_+_

    G|---------------------------------|-----------X---X---X-------X---X-|
    D|-------------------X-------X-----|---------------------------------|
    A|-------7---7---------5h7-----5h7-|-----4h5-X---X---X---5h7-X---X---|
    E|-0---X---X---5h7-X-------X-------|-0-------------------------------|
    ___1_+_+_+_2_+_+_+_3_+_+_+_4_+_+_+___1_+_+_+_2_+_+_+_3_+_+_+_4_+_+_+_

    G|-------7---7-------5---5---------|-------7---7-------5---5---5---5-|
    D|---------------------------------|---------------------------------|
    A|-5---5---5---0h3-3---3---3-------|-5---5---5---0h3-3---3---3---3---|
    E|---------------------------------|---------------------------------|
    ___1_+_+_+_2_+_+_+_3_+_+_+_4_+_+_+___1_+_+_+_2_+_+_+_3_+_+_+_4_+_+_+_

    G|-------7---7-------5---5---------|-------7---7-------5---5---5---5-|
    D|---------------------------------|-------------5h7-X---X---X---X---|
    A|-5---5---5---0h3-3---3---3-------|-5---5---5-----------------------|
    E|---------------------------------|---------------------------------|
    ___1_+_+_+_2_+_+_+_3_+_+_+_4_+_+_+___1_+_+_+_2_+_+_+_3_+_+_+_4_+_+_+_

    G|-------9---9---------------------|-------9---9---------------------|
    D|-------------------7---7---7-----|-------------------7-------5-----|
    A|-7---7---7-----------------------|-0h7-7---7-----------------------|
    E|-------------0h5-5---5---5---3---|-------------0h5-5---0h3-3---3---|
    ___1_+_+_+_2_+_+_+_3_+_+_+_4_+_+_+___1_+_+_+_2_+_+_+_3_+_+_+_4_+_+_+_

    G|-------9---9---------------------|-------9---9---------------------|
    D|-------------------7---7---7-----|-------------------7-------5-----|
    A|-7---7---7-----------------------|-0h7-7---7-----------------------|
    E|-------------0h5-5---5---5---3---|-------------0h5-5---0h3-3---3---|
    ___1_+_+_+_2_+_+_+_3_+_+_+_4_+_+_+___1_+_+_+_2_+_+_+_3_+_+_+_4_+_+_+_

    G|---------------------------------|---------------------------------|
    D|-------------------5---X---------|---------------------------------|
    A|-------7---7-------------5h7---5-|-------7---7-------4---4---4---4-|
    E|-0---X---X---5h7-X---X-------X---|-0---X---X---5h7-X---X---X---X---|
    ___1_+_+_+_2_+_+_+_3_+_+_+_4_+_+_+___1_+_+_+_2_+_+_+_3_+_+_+_4_+_+_+_

    G|---------------------------------|---------------------------------|
    D|---------------------------X---X-|-------------7---------X---X---X-|
    A|-------7---7-------4---4---------|-------7---7-5-------------------|
    E|-0---X---X---5h7-X---X---X---X---|-0---X---X-----------X---X---X---|
    ___1_+_+_+_2_+_+_+_3_+_+_+_4_+_+_+___1_+_+_+_2_+_+_+_3_+_+_+_4_+_+_+_

    G|---------------------------------|---------------------------------|
    D|---------------------------------|---------------------------------|
    A|-7-7-5---7---5---7---5-7---5---7-|---7-5---7---5---7---5-7---5---5-|
    E|---------------------------------|---------------------------------|
    ___1_+_+_+_2_+_+_+_3_+_+_+_4_+_+_+___1_+_+_+_2_+_+_+_3_+_+_+_4_+_+_+_

    G|---------------------------------|---------------------------------|
    D|---------------------------------|---------------------------------|
    A|-7-7-5---7---5---7---5-7---5---7-|---7-5---7---5---7---5-7---5---5-|
    E|---------------------------------|---------------------------------|
    ___1_+_+_+_2_+_+_+_3_+_+_+_4_+_+_+___1_+_+_+_2_+_+_+_3_+_+_+_4_+_+_+_

    G|---------------------------------|---------------------------------|
    D|---------------------------------|---------------------------------|
    A|-7-7-5---7---5---7---5-7---5---7-|---7-5---7---5---7---5-7---5---1-|
    E|---------------------------------|---------------------------------|
    ___1_+_+_+_2_+_+_+_3_+_+_+_4_+_+_+___1_+_+_+_2_+_+_+_3_+_+_+_4_+_+_+_

    G|---------------------------------|---------------------------------|
    D|---------------------------------|---------------------------------|
    A|-3-3-1---3---1---3---1-3---1---3-|---3-1---3---1---3---1-3---1---1-|
    E|---------------------------------|---------------------------------|
    ___1_+_+_+_2_+_+_+_3_+_+_+_4_+_+_+___1_+_+_+_2_+_+_+_3_+_+_+_4_+_+_+_

    G|---------------------------------|---------------------------------|
    D|---------------------------------|---------------------------------|
    A|-3-3-1---3---1---3---1-3---1---3-|---3-1---3---1---3---1-3---1-----|
    E|---------------------------------|-------------------------------0-|
    ___1_+_+_+_2_+_+_+_3_+_+_+_4_+_+_+___1_+_+_+_2_+_+_+_3_+_+_+_4_+_+_+_

    G|---------------------------------|---------------------------------|
    D|---------------------------------|---------------------------------|
    A|-----5---------------3-----------|-----1---------------0-----------|
    E|-5---------------3---------------|-1---------------0---------------|
    ___1_+_+_+_2_+_+_+_3_+_+_+_4_+_+_+___1_+_+_+_2_+_+_+_3_+_+_+_4_+_+_+_

    G|---------------------------------|---------------------------------|
    D|-------------------5---X---------|---X---X-------5---X-------5-----|
    A|-------7---7-------------5h7---5-|---------------------5h7-7---5h7-|
    E|-0---X---X---5h7-X---X-------X---|-X---X---5h7-X---X---------------|
    ___1_+_+_+_2_+_+_+_3_+_+_+_4_+_+_+___1_+_+_+_2_+_+_+_3_+_+_+_4_+_+_+_

    G|---------------------------------|---------------------------------|
    D|-------------------5---X---------|-------------------5---5---5---5-|
    A|-------7---7-------------4h5---5-|-------7---7---------------------|
    E|-0---X---X---5h7-X---X-------X---|-0---X---X---5h7-X---X---X---X---|
    ___1_+_+_+_2_+_+_+_3_+_+_+_4_+_+_+___1_+_+_+_2_+_+_+_3_+_+_+_4_+_+_+_

    G|---------------------------------|---------------------------------|
    D|-------------------5---X---------|---X---X-------5---X-------5-----|
    A|-------7---7-------------5h7---5-|---------------------5h7-7---5h7-|
    E|-0---X---X---5h7-X---X-------X---|-X---X---5h7-X---X---------------|
    ___1_+_+_+_2_+_+_+_3_+_+_+_4_+_+_+___1_+_+_+_2_+_+_+_3_+_+_+_4_+_+_+_

    G|---------------------------------|---------------------------------|
    D|-------------------5---X---------|---X---X-------5---X-------5-----|
    A|-------7---7-------------5h7---5-|---------------------5h7-7---5h7-|
    E|-0---X---X---5h7-X---X-------X---|-X---X---5h7-X---X---------------|
    ___1_+_+_+_2_+_+_+_3_+_+_+_4_+_+_+___1_+_+_+_2_+_+_+_3_+_+_+_4_+_+_+_

    G|---------------------------------|---------------------------------|
    D|-------------------5---X---------|---------------------------------|
    A|-------7---7-------------4h5---5-|-------7---7-------7---7---7---7-|
    E|-0---X---X---5h7-X---X-------X---|-0---X---X---5h7-X---X---X---X---|
    ___1_+_+_+_2_+_+_+_3_+_+_+_4_+_+_+___1_+_+_+_2_+_+_+_3_+_+_+_4_+_+_+_

    G|---------------------------------|---------------------------------|
    D|-------------------5---X---------|---X---X-------5---X-------5-----|
    A|-------7---7-------------5h7---5-|---------------------5h7-7---5h7-|
    E|-0---X---X---5h7-X---X-------X---|-X---X---5h7-X---X---------------|
    ___1_+_+_+_2_+_+_+_3_+_+_+_4_+_+_+___1_+_+_+_2_+_+_+_3_+_+_+_4_+_+_+_

    G|---------------------------------|---------------------------------|
    D|-------5---5---------------------|-------5---5---------------------|
    A|-------------------------1-------|-------------------------3-------|
    E|-3---3---3---0---1---3-------0---|-1/3-3---3---0---1---3-----------|
    ___1_+_+_+_2_+_+_+_3_+_+_+_4_+_+_+___1_+_+_+_2_+_+_+_3_+_+_+_4_+_+_+_

    G|---------------------------------|---------------------------------|
    D|-------5---5---------------------|-------5---5---------------X---X-|
    A|-------------------------1p0-----|-------------------3---3---------|
    E|-1/3-3---3---0---1---3-------0---|-1/3-3---3---0---1---X---X---X---|
    ___1_+_+_+_2_+_+_+_3_+_+_+_4_+_+_+___1_+_+_+_2_+_+_+_3_+_+_+_4_+_+_+_

    G|---------------------------------|---------------------------------|
    D|-------5-------------------------|-------5---5---------------X---X-|
    A|-----------------------1---1-----|-------------------3---3---------|
    E|-3---3---0---1---3---3---X---0---|-1/3-3---3---0---1---X---X---X---|
    ___1_+_+_+_2_+_+_+_3_+_+_+_4_+_+_+___1_+_+_+_2_+_+_+_3_+_+_+_4_+_+_+_

    G|---------------------------------|---------------------------------|
    D|-------5-------------------------|---------------------------------|
    A|-----------------------1---1-----|-------------0---1---0-----------|
    E|-3---3---0---1---3---3---X---0---|-0---1---3---------------3-------|
    ___1_+_+_+_2_+_+_+_3_+_+_+_4_+_+_+___1_+_+_+_2_+_+_+_3_+_+_+_4_+_+_+_

    G|---------------------------------|---------------------------------|
    D|---------------------------------|---------------------------------|
    A|---------------------------------|-----------2---2---3---3-5-5-----|
    E|-3-3---3---------3-3---3---------|-3-3---3-------------------------|
    ___1_+_+_+_2_+_+_+_3_+_+_+_4_+_+_+___1_+_+_+_2_+_+_+_3_+_+_+_4_+_+_+_

    G|---------------------------------|---------------------------------|
    D|-------------5-3-5---------------|-----------------------3---5-3---|
    A|---------------------X-3---5-----|-------------5-3-5-------------5-|
    E|-3-3---3-------------------------|-3-3---3-------------------------|
    ___1_+_+_+_2_+_+_+_3_+_+_+_4_+_+_+___1_+_+_+_2_+_+_+_3_+_+_+_4_+_+_+_

    G|---------------------------------|---------------------------------|
    D|-----------X-3-4-5---------------|-----------X-3-5-3---------------|
    A|---------------------X-3---5-5-X-|-------------------X---3---5-----|
    E|-3-3---3-------------------------|-3-3---3-------------------------|
    ___1_+_+_+_2_+_+_+_3_+_+_+_4_+_+_+___1_+_+_+_2_+_+_+_3_+_+_+_4_+_+_+_

    G|---------------------------------|---------------------------------|
    D|-----------X-3-4-5---------------|-----------X-3-5-3---------------|
    A|---------------------X-3---5-5-X-|-------------------X---3---5-----|
    E|-3-3---3-------------------------|-3-3---3-------------------------|
    ___1_+_+_+_2_+_+_+_3_+_+_+_4_+_+_+___1_+_+_+_2_+_+_+_3_+_+_+_4_+_+_+_

    G|-------------3-4-----------------|-------------3-4-----------------|
    D|-------5-----------3---3-5-3-----|-------5-----------3---3-5-3-----|
    A|-----------------------------5---|-----------------------------5---|
    E|-3-------------------------------|-3-------------------------------|
    ___1_+_+_+_2_+_+_+_3_+_+_+_4_+_+_+___1_+_+_+_2_+_+_+_3_+_+_+_4_+_+_+_

    G|-------------3-4-----------------|-------------3-4-----------------|
    D|-------5-----------3---3-5-3-----|-------5-----------3---3-5-3-----|
    A|-----------------------------5---|-----------------------------5---|
    E|-3-------------------------------|-3-------------------------------|
    ___1_+_+_+_2_+_+_+_3_+_+_+_4_+_+_+___1_+_+_+_2_+_+_+_3_+_+_+_4_+_+_+_

    G|-------------3-4-----------------|-------------3-4-----------------|
    D|-------5-----------3---3-5-3-----|-------5-----------3---3-5-3-----|
    A|-----------------------------5---|-----------------------------5---|
    E|-3-------------------------------|-3-------------------------------|
    ___1_+_+_+_2_+_+_+_3_+_+_+_4_+_+_+___1_+_+_+_2_+_+_+_3_+_+_+_4_+_+_+_

    G|---------------------------------|---------------------------------|
    D|---------------------------------|---------------------------------|
    A|-3---3-------1-3-5---5-------3-5-|-6---6-------5-6-8---8---(8)\----|
    E|---------------------------------|---------------------------------|
    ___1_+_+_+_2_+_+_+_3_+_+_+_4_+_+_+___1_+_+_+_2_+_+_+_3_+_+_+_4_+_+_+_

    G|-------------3-4-----------------|-------------3-3---3---3-3-3-----|
    D|-------5-----------3---3-5-3-----|-------5-------------------------|
    A|-----------------------------5---|---------------------------------|
    E|-3-------------------------------|-3-------------------------------|
    ___1_+_+_+_2_+_+_+_3_+_+_+_4_+_+_+___1_+_+_+_2_+_+_+_3_+_+_+_4_+_+_+_

    G|---------------------------------|---------------------------------|
    D|-------5-----0-----2-----3-------|-------5-----2-----3-------------|
    A|---------------------------------|---------------------------------|
    E|-3-------------------------------|-3-------------------------------|
    ___1_+_+_+_2_+_+_+_3_+_+_+_4_+_+_+___1_+_+_+_2_+_+_+_3_+_+_+_4_+_+_+_

    G|---------------------------------|---------------------------------|
    D|-------5-----2-----3-------------|-------5-----3-------------------|
    A|---------------------------------|---------------------------------|
    E|-3-------------------------------|-3-------------------0-----1-----|
    ___1_+_+_+_2_+_+_+_3_+_+_+_4_+_+_+___1_+_+_+_2_+_+_+_3_+_+_+_4_+_+_+_
     
  14. Holy crap. Awesome!

    Thanks so much slap pop slap.


    How long have you been playing bass?
     
  15. slapslappopslap

    slapslappopslap

    Nov 22, 2006
    NZ
  16. xaxxop

    xaxxop

    Sep 30, 2008
    it' s true? any video o sound slower please?

    thank you so much
     
  17. yeahman90

    yeahman90

    Jan 7, 2009
    is there any chance that you have this in power tab or guitar pro
    if not please tell where i can find it.
     
  18. zevl

    zevl

    Nov 20, 2011
    Ya is there anyone who has some software that can make that video slower and then repost it? i think that would help us all