Church Of Misery tabs - Extremely Groovy Doom Riffage Warning

Discussion in 'Tablature [BG]' started by Spidzior, Nov 26, 2013.


  1. Spidzior

    Spidzior

    Joined:
    Dec 22, 2011
    Messages:
    69
    Location:
    Poland
    I've been trying to transcribe one of their songs, "Candy Man (Dean Corll)", basing on these guitar tabs, but it's not going too well. Help would be appreciated.

    The tuning is two full steps down CFA#D#. That's all I've got so far, not sure everything is correct.
    Code:
    F |---------------5 x3 (~0:28-0:40)
    C |-0-03-04-05-567-
    
    F |--------------- x1 (~0:40-0:44)
    C |-0-03-04-05-567
    
    A#|---------------------5b----
    F |----------------5------7567 (~0:44-1:17)
    C |-003-003-035-567--567------
    
    A#|-----------------5
    F |5h777----5h777---- (~1:17-1:50)
    C |------567-----567-
    
    A#|----------5----
    F |-----5H7---75H7 (~1:50-2:06)
    C |76530---765----
    
    A#|---------------------5b----
    F |----------------5------7567 (~2:06-2:39)
    C |-003-003-035-567--567------
    
    
     

Share This Page