I'm a Girl Watcher - The O'Kaysions

Discussion in 'Tablature [BG]' started by don21480, Jan 25, 2013.


  1. don21480

    don21480 Supporting Member

    Joined:
    Mar 17, 2006
    Location:
    NC
    Great beach music tune with a cool bassline. I've got most of it - anybody know this?

    chorus sounds like:

    ------------------------
    ------7----7----7------ over and over
    -7-9----9----9----7---
    ------------------------

    verse like:

    -----------------------------------------------
    --------2-----4---5-5-------------------------
    -5-4-2-----4---5------7-7---4-7-4----4-7-4--
    ----------5-----------------5--------5---------

    ------------------------------------------------
    --------2-----4----------------------6-9-6----
    -5-4-2-----4---5------------6-9-6-7----------
    ----------5-------7-7-7-7-7-------------------

    Its a start but I'm sure I'm missing something

    thanks!
     
  2. tjh

    tjh Supporting Member

    Joined:
    Mar 22, 2006
    Location:
    Minnesota
    Don, I never played it before, but this fella does a real nice job with it ...

     

Share This Page