Interstate Love Song

Discussion in 'Tablature [BG]' started by scoopscallahan, Nov 28, 2013.


  1. scoopscallahan

    scoopscallahan

    Joined:
    Jun 14, 2011
    I've got the song down with the exception of the chorus. From what I can tell it's the same as the intro but with some extra notes in there. Deleo's master track is on youtube and I've listened to it 100 times. I just can't get figure it out. Can anyone lend a hand on this?
  2. My name is Mudd

    My name is Mudd

    Joined:
    Jan 24, 2009
    Location:
    Nowhere'sville, man...
    An older tab that I got from the old BassMasta site, but it seems to be accurate...


    Interstate Love Song
    By the Stone Temple Pilots
    Bass Tab

    Intro
    G:---------------------------|-------------------------|
    D:---------------------------|--------------------6----|
    A:--4---4-----4---4----2-4-6-|-7---7------7-----7---7--|
    E:---------------------------|--------0-------7--------|


    G:-----------------------------|----------------------------------|
    D:-----------------------------|----------------6---6-----6-6-----|
    A:-----------------------------|------------3-6---------6-----6---|
    E:-5---5------5---5---0-5---7--|--4---4---4---------------------4-|


    G:-------------------------|--------------------||
    D:-------------------------|--------------------||
    A:-------------------4-7---|--------------------||
    E:-5---5---5-----0-5-------|-0------------------||


    Groove #1
    G:--------------------------------------|------------------------------|
    D:--------------------------------------|------------------------------|
    A:---4b(1/2)--4-----2-2---------------7-|------------------------------|
    E:------------------------5-5-0-4-5-7---|-0----4-/-7---0---4--5--6--7--|

    End Groove #1
    G:-------------------------------|||
    D:-------------------------------|||
    A:-----------7-7-----7---7-6-----|||
    E:-0-----4---------7---------7---|||



    Verses 1 & 2
    G:----------------------------------|-----------------------------|
    D:----------------------------------|-----------------------------|
    A:--4---4-4----x-4----4-4---4-4---4-|-3---3-3---3---3-3---3-4-3---|
    E:------------------------4-----4---|-------------------4---------|


    G:---------------------------|-----------------------------|--------|
    D:---------------------------|-----------------------------|--------|
    A:-2---2-2---2---2-2-----2---|-1---1-1---x---1-1---1-2-1---|-0------|
    E:---------------------2---2-|-------------------2---------|--------|


    G:------------------------------|---------------------------------||
    D:------------------------------|--------------------------------o||
    A:------------------------------|-----------7-7-----7----7-6-----o||
    E:-0-----4--/-7-0--4---5--6-7---|-0-----4---------7----------7----||


    Chorus
    G:--------------------------------|--------------------------|
    D:--------------------------------|----------------------6---|
    A:-4---4---4--4-----4-4-2-4-2-4-6-|-7---7---7--7--7----7---7-|
    E:--------------------------------|------------------7-------|


    G:----------------------------|-------------------------------|
    D:----------------------------|---------------6--6----6-6-----|
    A:------------------------7---|-----------3-6-------6-----6---|
    E:-5---5---5--5--5--0-5-------|-4---4-------------------------|


    G:---------------------------------|-------------------------|
    D:---------------------------------|---------------------6---|
    A:-----------------------------4---|-7---7-7-7--7--7---7---7-|
    E:-5---5---5-5--5----5---0-5-7-----|-----------------7-------|


    G:---------------------------------|------------------------------|
    D:---------------------------------|------6-------6--6----6-6-----|
    A:-----------------------------7---|----------4-6-------6-----6---|
    E:-5---5---5-5-5-5---5-5-0-5-x-----|-4--------------------------4-|


    G:----------------------------|----------||
    D:----------------------------|----------||
    A:----------------------4-7---|----------||
    E:-5---5---5--5--5--0-5-------|-0--------||





    Verse 3
    G:|--------------------------------|-----------------------------|
    D:|--------------------------------|-----------------------------|
    A:|-4---4-4----x-4---4-4---4-4---4-|-3---3-3----3--3-3---3-4-3---|
    E:|----------------------4-----4---|-------------------4---------|


    G:--------------------------|--------------------------|-------|
    D:--------------------------|--------------------------|-------|
    A:-2---2-2---2--2-2-----2---|-1---1-1--x---1-1---1-2-1-|-0-----|
    E:--------------------2---2-|------------------2-------|-------|


    G:------------------------------------|-------|
    D:------------------------------------|-------|
    A:----------------7-7-----7---7-6-----|-0-----|
    E:-0-----4--/--7--------7---------7---|-------|


    G:----------------------------------|-----------------------------||
    D:----------------------------------|-----------------------------||
    A:-0--------------------------------|-----------7-7-----7---7-6---||
    E:--------4--/--7-0---5---0-4-5-7---|-0---4--/--------7---------7-||


    Outro
    G:----------------------------------|----------------------------|
    D:----------------------------------|----------------------------|
    A:-4b(1/2)--4---2-2-2-------------7-|--------2---------------2---|
    E:--------------------5-5-0-4-5-7---|-0----4---0-0---5---4-5-----|


    G:-------------------|||
    D:-------------------|||
    A:-----------7-------|||
    E:-0----4--7---------|||


    Song Path:
    Intro
    Groove #1 twice
    Verses 1 & 2
    Chorus
    Verse 3
    Chorus
    Outro

Share This Page