Looking for Tab: Plastic Fantastic Lover by The Jefferson Airplane

Discussion in 'Tablature [BG]' started by mrbell321, Nov 6, 2013.


  1. mrbell321

    mrbell321

    Joined:
    Mar 26, 2012
    Messages:
    692
    Location:
    N. Colorado
    It doesn't seem to hard, but I just can't figure it out. Anyone?
     
  2. mrbell321

    mrbell321

    Joined:
    Mar 26, 2012
    Messages:
    692
    Location:
    N. Colorado
    Probably against the rules, but... anyone?
     
  3. mrbell321

    mrbell321

    Joined:
    Mar 26, 2012
    Messages:
    692
    Location:
    N. Colorado
    I think I MIGHT have some of it almost maybe partially worked out... anyone else care to tell me how wrong it is?
    Song starts with just guitar. At the end of the 2nd measure there seems to be something like

    -|1 + 2 + 3 + 4 + |
    G|----------------|
    D|----------------|
    A|-------------5h7|
    E|----------------|

    Which leads into 4 measures of:

    -|1 + 2 + 3 + 4 + |
    G|----------------|
    D|----------------|
    A|-------------5h7|
    E|0---------------|

    At which the verse picks up with a two bar pattern. The first bar being

    -|1 + 2 + 3 + 4 + |
    G|----------------|
    D|----------7-6---|
    A|----9p7-------9-|
    E|0---------------|

    and the 2nd bar(which I can't really make out at all..)

    -|1 + 2 + 3 + 4 + |
    G|----------------|
    D|----------------|
    A|----9p7---------|
    E|0---------7-5-7-|

    I haven't really spent much time on the chorus(and none on the bridge), but I think it's mostly roots.

    Thoughts, criticisms, whatever?
     

Share This Page