Oceans Thirteen soundtrack

Discussion in 'Tablature [BG]' started by OchreOtter, Jan 12, 2014.


  1. OchreOtter

    OchreOtter

    Joined:
    Nov 28, 2013
    I've looked very hard and couldn't find anything like Sheet music or tablature on the song Kensington Chump by David Holmes. So if anyone could figure out the notes on just the basic melody, that would be GREAT.

    -Greatly Appreciated :bassist:
     
  2. PlayTheBass

    PlayTheBass aka Mac Daddy Supporting Member

    Joined:
    Dec 7, 2004
    Location:
    Carmichael, CA
    Think Am7, use open strings for pickup notes, slide around a lot, and keep it loosey-goosey... but here's the rough idea:

    G|-----------------------|
    D|-----7---5--x-5--7-----|
    A|--------------------7--|
    E|5----------------------|

    G|-----------------------|
    D|-----7---5--x-5—7/10---|
    A|-----------------------|
    E|5--------------------3/|
     
  3. OchreOtter

    OchreOtter

    Joined:
    Nov 28, 2013
    oh my god. thank you sooooooo much. :D
     

Share This Page