Raphael Saadiq - Skyy Can You Feel Me

Discussion in 'Tablature [BG]' started by soopington, Feb 11, 2014.


  1. soopington

    soopington

    Joined:
    Jan 19, 2014
    Location:
    EastCoast
    one of my first tabs :bassist: any corrections are overly appreciated
    Pretty smooth song

    6-----5------5-----5-----
    --8--8--7--7--7--7--7--7
    ---8------7-----7------7-
    ---------------------------

    ---------------------------
    6-----5------5----5------
    --8--8--7--7--7----7--7-
    ---8------7-----7-----7---

    the timing of the notes alternate here and there throughout the song
     

Share This Page