Skin It Back

Discussion in 'Tablature [BG]' started by StrangerDanger, May 28, 2012.


  1. StrangerDanger

    StrangerDanger Neo Maxie Zoom Dweebie Supporting Member

    Joined:
    Jan 3, 2010
    Location:
    76227
    Anybody have a TAB for Skin It Back by Little Feat?

    Thanks in advance!

  2. StrangerDanger

    StrangerDanger Neo Maxie Zoom Dweebie Supporting Member

    Joined:
    Jan 3, 2010
    Location:
    76227
    Texas she's nice but Georgia is oh so sweet.
  3. StrangerDanger

    StrangerDanger Neo Maxie Zoom Dweebie Supporting Member

    Joined:
    Jan 3, 2010
    Location:
    76227
  4. StrangerDanger

    StrangerDanger Neo Maxie Zoom Dweebie Supporting Member

    Joined:
    Jan 3, 2010
    Location:
    76227
  5. Register to disable this ad
  6. baba

    baba

    Joined:
    Jan 22, 2002
    Location:
    3rd stone from the sun
    Damn, I love that song. No tabs. Some cool chord changes going on in there. We played it briefly in an old band, but one of our guitarists could not for the life of him get through it without botching a chord. He said Lowell George was either an idiot or a genius....I think we all know the answer to that one!
  7. StrangerDanger

    StrangerDanger Neo Maxie Zoom Dweebie Supporting Member

    Joined:
    Jan 3, 2010
    Location:
    76227
    Yeah it's a great song. And LG was a genius.
  8. StrangerDanger

    StrangerDanger Neo Maxie Zoom Dweebie Supporting Member

    Joined:
    Jan 3, 2010
    Location:
    76227
  9. StrangerDanger

    StrangerDanger Neo Maxie Zoom Dweebie Supporting Member

    Joined:
    Jan 3, 2010
    Location:
    76227
    Any help? Gracias in advance.
  10. StrangerDanger

    StrangerDanger Neo Maxie Zoom Dweebie Supporting Member

    Joined:
    Jan 3, 2010
    Location:
    76227
  11. stephenfdavis

    stephenfdavis

    Joined:
    Oct 7, 2012
    Hey, I have always loved that bass line. I just picked up a bass this week and I have been learning songs that I like, and I have this one mostly figured out. I can send you what I have if you message me.
  12. stephenfdavis

    stephenfdavis

    Joined:
    Oct 7, 2012
    Or I can just see how this goes. This is only up until just before the bridge part. I can try to finish it up, but this should give you the idea of most of the song. I didn't notate the rhythm exactly, or show slides, etc., but these are the notes. On the climb parts in the chorus the bass sits out the first time, so be sure to pause and come in the second time.

    G---------------------------------------------------------------------
    D--------------------------2-2-1-0-----------------------2-2-1-0--
    A--2-4----4--2-3-4--2-4----------4--2-4--2-2-3--4-2-4----------
    E---------------------------------------------------------------------

    G------------------------------------------------------------4---3---2
    D--------------------------2-2-1-0-----------------------2--2-1-0-0-
    A--4-2-4--2-2-3--4-2-4----------4--2-4--2-2-3--4-2-4------------
    E----------------------------------------------------------------------

    G----------------------------------------------------------------------
    D----------------------------------4-4----------------------4-4------
    A--4-2-4--2-4-------2-4----------------4-----2-4--------------------
    E---------------0-2-4------0-2-2-----2----0-4------0-2-2-----2----

    G-----------------------------------------------------------------------
    D----------2------------------------------------------2-1--0--2-1--0-
    A--4-2-4-----2------------0--0-0-2-4-2-4------------------4-------4
    E----------------0--0-2-3------------------0-3-4-3-2----------------

    G-----------------------------6-4-------------------------------------
    D--------------------------6------6-----------------------2----------
    A--4-2--------------2-4-7---------------------------2-4---4-2-4-4--
    E------0------0-2-4----------------2-0--0-2-2-3-4------------------

    G-----------------------------------------6-4---------------------------
    D--------------------------------------6------6-------1-0----2----------
    A--------2-4-2-----------------2-4-7----------------------4--4-2-4-4-
    E--0-2-4-------0-------0-2-4-------------------2-0---------------------
  13. StrangerDanger

    StrangerDanger Neo Maxie Zoom Dweebie Supporting Member

    Joined:
    Jan 3, 2010
    Location:
    76227
    I just came back to this thread and saw this. Thanks so much and sorry for taking so long. I guess I just gave up on it. I'll try this out tonight. Thanks again for the effort!

Share This Page