1. Welcome to TalkBass, the Premier Bass Player Community and Information Source. Register a FREE Account to post and unlock tons of features!

Sludge/doom metal tabs

Discussion in 'Tablature [BG]' started by karl123, Apr 18, 2009.


  1. karl123

    karl123

    Apr 17, 2009
    :bassist:Hi, Does anyone know where I can find sludge/doom bass tabs? I know there is a Weedeater thread on this board, and it is really informative, but I couldn't find Monkey Junction. I am also looking for Eyehategod's tabs. I would appreciate any help.
     
  2. Alcyon

    Alcyon

    Jan 15, 2008
    Vancouver, BC
    I know it might seem tough at first, but for the most part, all of Weedeater's stuff is very simple to tab if you tune down to full D or full C/drop c and just try to match the notes. I'm pretty sure Monkey Junction is just:

    F:------------------------------------
    C:------------------------------------
    G:----7-5---5------------------------
    D:-0------7---7-6--0-3-5-6-5-3-5-0
     
  3. TalkBass Friendly Advertisement


    to hide this ad and more.
  4. karl123

    karl123

    Apr 17, 2009
    Yeah, that tab seems quite simple to figure out, but I am a complete beginner (bought my first bass two days ago :)). Thanks for the tab!
     
  5. Alcyon

    Alcyon

    Jan 15, 2008
    Vancouver, BC
    Glad you're getting into it :) Weedeater sucked me into bass too.
     
  6. joe190

    joe190

    Apr 26, 2009
    Here is an incomplete tab i found for Dragonaut by Sleep

    Tuning C

    Riff 1 x10
    |----------------4b-------------------------------------------------|
    |-------4--6---------6--4-----4--6--------4--6-----------4-----4--6-|
    |--------------------------6-----------------------4--6-----6-------|
    |-7--4--------4---------------------7--4--------4-------------------|

    Riff 2
    |----------------------------------------------|
    |----------------------------------------7-6-5-|
    |-5h7-7-7-7-7-7-7-5h7-8-7-5-7-5-7-7-7-7--------|
    |----------------------------------------------|
    Riff 3
    |----------------------------------------------|
    |----------------------------------------------|
    |-5h7-7-7-----5h7-7-7-----5h7-7-7------2-1-1-0-|
    |---------0-0---------0-0---------0-0----------|
     
  7. the stoned 007

    the stoned 007

    Jun 13, 2012
    could someone do some electric wizard tabs like mind transferral, or stoned jesus occult, and black woods ? by the way happy new year :)
     
  8. justiceforyall

    justiceforyall

    Jan 17, 2013
    I know Southern Discomfort by EHG, God Luck and Good Speed by Weedeater, Megalomania by Church of Misery, Funeralopolis by EW, and pretty much every Bongzilla song ever made. Would anyone be interested in those? If so, I'll post them in the morning when I have access to a computer.
     
    DarkAvianFind likes this.
  9. ronery365

    ronery365

    Feb 19, 2013
    justiceforyall, I joined the forum just to say I'd seriously appreciate you posting some of those tabs. Especially funeralopolis. You'd be the man.
     
    DarkAvianFind likes this.



Share This Page