1. Register your FREE Account to post and unlock tons of features!

Tab Request. Wild Nothing - Shadow

Discussion in 'Tablature [BG]' started by markb88, Mar 8, 2014.


  1. markb88

    markb88

    Mar 8, 2014
    Bass in this song is really nice and i've been trying to work it out for the past few days but it's starting to really frustrate me. If anyone can help i'd be so grateful,

    Heres a video of the song where you can pretty much see what the guy plays but I still can't get my head around it.

     
  2. markb88

    markb88

    Mar 8, 2014
  3. Sponsored by:

  4. Main riff/Intro/verse
    g-
    d-----6---6-----------10-10-8\6---------6---6--------8---10-10-8\6----
    a-4-----4---4---6-6------------------4-----4---4----6-------------------- X3
    e-

    0:26
    g-
    d-----10-10----------------------
    a-8-8---------8-10-10---11-11..
    e-

    BRIDGE 1:05
    g-
    d-----------6-6--6--6---8-8-10\
    a-4-4---4------------------------6-6--6 X2
    e-

    1:18
    g-
    d------6--6-------6--6--------8---8-----8---8/10-8--8/10-8----------6--6-------6--6---
    a-4-4---4---4-4---4------6-6----6--6-6-------------8--------8---4-4---4---4-4---4----
    e-

    1:31
    g-
    d---------------------10-10---
    a-10-10--11-8-8--8---------- X3
    e-

    verse (same)

    SLOW BRIDGE2 2:37
    g-
    d-
    a-8-8-6--8-8-6--6----1-1--3--3---1-1--3-*-3 X2
    e-

    verse again with some little fills

    end on C#

    *listen for proper timing and repetition
     



Share This Page