1. Please take 30 seconds to register your free account to remove most ads, post topics, make friends, earn reward points at our store, and more!  

AC/DC - Soul Stripper

Discussion in 'Tablature and Notation [BG]' started by rydin4lifebass, May 7, 2010.


  1. The bass line is simple and sounds badass but I'm not sure of the chorus. I've found the following and know that when the chorus starts it is the pre-chorus then main riff and then pre-chorus again but I can't follow the actual "chorus"..any help is much appreciated..
    Thanks,...

    Main Riff:
    A:-2-0-2--2-0-2-2-0-2-0-2-0-2-

    Pre-Chorus:
    A:-3-3-3-3-3-3-3-3-3-3-3-3-3-3-3-3-

    Another tab has the same main riff but the pre-chorus looking liek this....

    pre chorus
    G|-----------------------------------|
    D|-----------------------------------|
    A|-----------------------------0-2---|
    E|-3-3-3-3-3-3-3-3-3-3-3-3---3-----0-|

    chorus
    G|-----------------------------------------|
    D|-----------------------------------------|
    A|-2-0---2-2---2-0---2-2---------------0-2-|
    E|-----0-----------2-------3-3-3-3-3-------|
     

Share This Page

  1. This site uses cookies to help personalise content, tailor your experience and to keep you logged in if you register.
    By continuing to use this site, you are consenting to our use of cookies.