Psst... Ready to join TalkBass and start posting, make new friends, sell your gear, and more?  Register your free account in 30 seconds.

Aerosmith - Dream On corrections

Discussion in 'Tablature and Notation [BG]' started by mattsk42, Jul 7, 2005.


  1. mattsk42

    mattsk42 $100 off new Directv subsp.PM me BEFORE signing up Supporting Member

    Hey this is some guy's tabbing of this song and the only close one I can find. Can anyone correct it for me? I can't figure it out.

    Dream On - Aerosmith

    intro
    G|----------------------------------------------------------------|
    D|3-33-33-33-33-33-33---3-31-3------3-33-333-333-1-------1-12-13--|
    A|----------------------------5-54-4------------3-1-111-1---------|
    E|----------------------------------------------------------------|

    verse
    "Everytime I look in the.." "..isn't that the.."
    G|------------------------------|-----------------------------|
    D|3-------3-------3-------3-----|1-1--------------------------|
    A|------13------13------13------|---3-34-43-14343434343434343-|
    E|---1-------1-------1-------1--|-----------------------------|

    "I know nobody knows.."
    G|-------------------------------------------|
    D|3-31-3---1-13-31-3---1-3--33-33-33-33-33-33|
    A|------4-4---------4-4----------------------|
    E|------------------------1------------------|

    "sing with me, sing for.."
    G|----------------------------------------|
    D|3-31-3---1-13-31-3---1------------------|
    A|------4-4---------4-4--14343434343434343|
    E|----------------------------------------|

    chorus
    "well, dream on, dream on.." chorus outro
    G|-------------------------------|----------------------------------------|
    D|---------1-13333-32------------|-----------13-35-56-68------------------|
    A|1-13-34-4----------32------0---|1-13-34-41-------------13333333333333333|
    E|---------------------32-023-11-|----------------------------------------|

    Oh, and if you're really good, Seal's Kiss from a Rose would be great! :D
     
  2. mattsk42

    mattsk42 $100 off new Directv subsp.PM me BEFORE signing up Supporting Member

    :bag:
     
  3. mattsk42

    mattsk42 $100 off new Directv subsp.PM me BEFORE signing up Supporting Member

    Anyone have the sheet music to this? or even know it off the top of their head?