1. Please take 30 seconds to register your free account to remove most ads, post topics, make friends, earn reward points at our store, and more!  

anesthesia-pulling teeth

Discussion in 'General Instruction [BG]' started by yellowbassj, Apr 5, 2006.


  1. yellowbassj

    yellowbassj

    Mar 20, 2006
    I need a little help and info about this song. I can play almost up to the part where the drums come in but i'm having a hard time playing this:
    Q Q E E E E Q Q E E E E
    |---------18-----19-----|-18--18--18-----18-----|
    |-19--19--19-19--19-19--|-19--19--19-19--19-19--|
    |--0---0---0-(0)--0-(0)-|--0---0---0-(0)--0-(0)-|
    |-----------------------|-----------------------|


    E E E E Q E E E E E E E E E +E
    |-19-----18-----19--18-----|-19-----18-----19-----18-----
    |-19-19--19-19--19--19-19--|-19-19--19-19--19-19--19---
    |--0-(0)--0-(0)--0---0-(0)-|--0-(0)--0-(0)--0-(0)--0-(0)-|
    |--------------------------|-----------------------------|
    How do you do it? Pick, fingers, down picking, back and forth picking?
    Does anyone know how to play this song, can you acually make it sound the way Cliff does? Thanks
     
  2. machine gewehr

    machine gewehr

    Sep 17, 2005
    Istanbul
    Man this is an AWFUL tab,where did you get that??Well it goes like:

    G 18-19-18
    D 19-19-19
    A (0) (0) (0)

    Thats not exactly how it goes but I play it like this,It sounds ok.I use my thumb for the A and for G and D my index and middle fingers or you may not play the open As so its easier,I don't play the open As sometimes and it sounds allright!
     
  3. yellowbassj

    yellowbassj

    Mar 20, 2006
    yeah i'll go try that thanks!
     

Share This Page

  1. This site uses cookies to help personalise content, tailor your experience and to keep you logged in if you register.
    By continuing to use this site, you are consenting to our use of cookies.