Anyone have tabs for 'Express Yourself"?

Discussion in 'Tablature and Notation [BG]' started by tgbBassPlayer, Jan 30, 2003.


  1. this is an awsome bassline!
    But I can't find tabs anywhere!
    I think it was originally done by The Watts 103rd Street Rhythm Band, but I know it was used by NWA.

    please, someone must be able to play this!!
     
  2. here we go, my tab of it, anyway- if anyone spots any mistakes let me know;

    chorus; (bit sampled by NWA);

    G-8---8-------------------------------
    D-------5-6-8-5---6--6-5---8-5-8-5---
    A---6------------6---6----8---------8-
    E--------------------------------------

    also octave-skipping variation substituted at end of riff;

    G---------7-
    D-----8-----
    A-8-----5---
    E---6-------



    verse;

    G---------------------------------
    D---------------------------------
    A----------3-4-5-6-6-------3-4-6-
    E-4------4------------4--4--------

    G---------------------------------
    D---------------------------------
    A----------3-4-5-6-6-------5-6-8-
    E-4------4------------6--6--------