1. Please take 30 seconds to register your free account to remove most ads, post topics, make friends, earn reward points at our store, and more!  
     
    TalkBass.com has been uniting the low end since 1998.  Join us! :)

anyone have the n.i.b. bass intro?

Discussion in 'Tablature and Notation [BG]' started by gregelka, Apr 26, 2006.


  1. gregelka

    gregelka

    Apr 25, 2006
    Topeka, KS
    I've looked everywhere... NO ONE has the correct tabbing for Black Sabbath's N.I.B. bass intro! And yes, I am that lazy as to not just write it myself :).
     
  2. WillPlay4Food

    WillPlay4Food Now With More Metal! Supporting Member

    Apr 9, 2002
    Orbiting HQ
    It's called Bassically. I have the sheet music at home, but not Tab.
     
  3. lomer

    lomer

    Mar 20, 2005
    Perth, Australia
    you'll be lucky man, i've been looking for the right tab for this since I started playing, you won't find a 100% correct one (such is the world of tab)..... i've just started learning it from ear out of frustration :)
     
  4. DaftCat

    DaftCat

    Jul 26, 2004
    Medicine Hat
    Good! You won't regret it either. :)
     
  5. gregelka

    gregelka

    Apr 25, 2006
    Topeka, KS
    thats what i've started to do but i'm writing mine down too so ther will actually be a RIGHT tab online for this cool intro!
     
  6. WillPlay4Food

    WillPlay4Food Now With More Metal! Supporting Member

    Apr 9, 2002
    Orbiting HQ
    Here's is a quick stab at the Tab. Let me know if this works for you:

    Code:
    Bassically (N.I.B Intro) - Black Sabbath
    
    
    
    |------------------------------------------
    |---------5^---5-7-7^-7-5-------5------5--7
    |-7-7-5------7------------7-5------7-------
    |-------7---------------------7------------
    
    
    
    |---7-9---9----7-10-9-7------------------------
    |-9---------------------9-7-9-5^---5-7--7-5---5
    |--------------------------------7----------7--
    |----------------------------------------------
    
    
    
    |----------------------------------------
    |-------------------5-----5-7-7^--7-5----
    |-7-5-----------5-7---7---------------7--
    |-----7-3^-0-5-7------------------------7
    
    
    
    |-----7-9-9-7----------------------------------
    |-5/9-----------9-7h9----5--------------5-7-7^-
    |--------------------------7-5----5---7--------
    |------------------------------7-(0)-----------
    
    
    
    |----------------------------------------
    |-7-5----5^--------------------------5^--
    |-----7---------7-5--------------5-7---7-
    |-------------------7-5-3^-0-5-7---------
    
    
    
    |----------------------------------
    |---------5-7-7^-7-5------5---5--7-
    |-5---5-7-------------5h7---7------
    |---7------------------------------
    
    
    
    |---------------------------------------7-9-9-7-----------
    |--7-7-5-----------------5-7--7-7-5---9---------9-7-9-5---
    |----------7-5-------5h7------------7---------------------
    |--------------7-5h7--------------------------------------
    
    
    
    |-----------------------------------------------------
    |--------5^-----------------------5^------------------
    |-7-5--------7-5------7---5---5-7-----7--5----5h7-5h7-
    |-----7----------7-0--------7--------------7----------
    
    
    |----------------------------------------------------------
    |-----5h7p5-----------5-7^-7-5-----------------------------
    |-5h7-------7-5---5-7----------5h7-5h7-5h7-5h7-5---5-------
    |---------------7--------------------------------7---------
     
  7. McHaven

    McHaven

    Mar 1, 2005
  8. gregelka

    gregelka

    Apr 25, 2006
    Topeka, KS
    Both are good but i dont think their right, somewhere toward the begining there is a hammer and a pull from 7 to 9 and bak to 7 then a slide to 5
     
  9. WillPlay4Food

    WillPlay4Food Now With More Metal! Supporting Member

    Apr 9, 2002
    Orbiting HQ
    The Tab I posted is right out of the Black Sabbath sheet music book I own. Doesn't mean that either the Tab is incorrect (ran into this in a Police bass book I own, the sheet music is correct, but the Tab is wrong) or that I mis-typed it when I punched it into my text editor.

    Should give you a decent start though. :)
     
  10. gregelka

    gregelka

    Apr 25, 2006
    Topeka, KS
    yeah it did, thanks
     

Share This Page