Dismiss Notice

Psst... Ready to join TalkBass and start posting, make new friends, sell your gear, and more?  Register your free account in 30 seconds.

ARE YOU GONNA BE MY GIRL INTRO REAL TAB

Discussion in 'Tablature and Notation [BG]' started by Bassist_Ben, Apr 22, 2005.


  1. Hey this is the real are you gona be my girl tab by JET:

    G|-------------------------------
    D|-------------------------------
    A|-0-0-0--0-0---3---------------
    E|--------------3----------------

    G|-------------------------------
    D|-------------------------------
    A|-0-0-0--0-0--------------------
    E|--------------3-3---------------

    G|-------------------------------
    D|-------------------------------
    A|-0-0-0--0-0---3---------------
    E|--------------3----------------

    G|-------------------------------
    D|-------------------------------
    A|-0-3-5-5-3-0---0-0------------
    E|--------------3-----------------

    That just main intro so yeah it sounds right!
    From Bassist_Ben
    P.S tell me if you like it.
     
  2. Finger Blister

    Finger Blister

    Jul 8, 2003
    Here's my version.




    INTRO:
    |-------------------------|-------------------------|-------------------------|---------------------|
    |-------------------------|-------------------------|-------------------------|---------------------|
    |-----------------------3-|-------------------------|-----------------------3-|---3-5--5-5-3--------|
    |-5--5--5--5--5--0-3-5----|-5--5--5--5--5--0-3-0-3--|-5--5--5--5--5--0-3-5----|-5-------------5-5-3-|

    |-------------------------|-------------------------|-------------------------|-------|
    |-------------------------|-------------------------|-------------------------|-------|
    |-----------------------3-|-------------------------|-----------------------3-|-----5-|
    |-5--5--5--5--5--0-3-5----|-5--5--5--5--5--0-3-0-3--|-5--5--5--5--5--0-3-5----|-------|


    VERSE:
    |-------------------------|-------------------------|-------------------------|---------------------|
    |-------------------------|-------------------------|-------------------------|---------------------|
    |-----------------------3-|-------------------------|-----------------------3-|---3-5--5-5-3--------|
    |-5--5--5--5--5--0-3-5----|-5--5--5--5--5--0-3-0-3--|-5--5--5--5--5--0-3-5----|-5-------------5-5-3-|

    |------------|-------------------------|------------|-------------------------|------------|
    |------------|-------------------------|------------|-------------------------|------------|
    |----rest--5-|----------------------3--|----rest--5-|----------------------3--|----rest--5-|
    |-5----------|-5--5--5--5--5--0-3-5----|-5----------|-5--5--5--5--5--0-3-5----|-5----------|

    |-------------------------|---------------------|
    |-------------------------|---------------------|
    |----------------------3--|---3-5--5-5-3--------|
    |-5--5--5--5--5--0-3-5----|-5-------------5-5-3-|

    PRE CHORUS:
    |--------------|--------------|--------------|--------------|
    |--------------|--------------|--------------|--------------|
    |-7-5--5--5----|-7-5--5--5----|-7-5--5--5----|-7-5--5--5----|
    |--------------|--------------|--------------|--------------|

    CHORUS: (Play this twice)
    ||-------------------------|------------------------|-------------------------|------------------------||
    ||-------------------------|------------------------|----------------------3--|------------------------||
    ||----------------------3--|-3--3--3--3--3----3---3-|-5--5--5--5--5----3-3----|------------------------||
    ||-5--5--5--5--5--0-3-5----|----------------3---3---|----------------5--------|-5--5--5--5--5--0-3-0-3-||

    CHORUS OUT:
    |--------------|---------|---------------------|
    |--------------|---------|---------------------|
    |-7-7--7--7----|---------|------------------5--|
    |--------------|-3-3-----|------3--------------|

    VERSE | PRE-CHORUS | CHORUS | CHORUS OUT
     
  3. Finger Blister

    Finger Blister

    Jul 8, 2003
    Another version -
    Not tabbed by me.


    -INTRO 1-

    G|------------------------------------------|
    D|------------------------------------------|
    A|-------------------3----------------------|
    E|-5-5-5--5-5-0--3-5----5-5-5--5-5-0--3-0-3-|

    G|------------------------------------------|
    D|------------------------------------------|
    A|-------------------3----3-5--5-5-3--------|
    E|-5-5-5--5-5-0--3-5----5-------------5-5-3-|

    G|------------------------------------------|
    D|------------------------------------------|
    A|-------------------3----------------------|
    E|-5-5-5--5-5-0--3-5----5-5-5--5-5-0--3-0-3-|

    G|------------------------------------------|
    D|------------------------------------------|
    A|-------------------3----------------------|
    E|-5-5-5--5-5-0--3-5----5---------------15\-|

    G|------------------------------------------|
    D|------------------------------------------|
    A|-------------------3----------------------|
    E|-5-5-5--5-5-0--3-5----5-5-5--5-5-0--3-0-3-|

    G|------------------------------------------|
    D|------------------------------------------|
    A|-------------------3----3-5--5-5-3--------|
    E|-5-5-5--5-5-0--3-5----5-------------5-5-3-|

    -VERSE- (0:31, 1:35)

    G|-------------------------------------------------------------|
    D|-------------------------------------------------------------|
    A|--------------------------3--------12\---------------------3-|
    E|-5------5-5-5--5-5-0--3-5----5-----------5-5-5--5-5-0--3-5---|

    G|--------------------------------------------------------|
    D|--------------------------------------------------------|
    A|---------------------------------3----3-5--5-5-3--------|
    E|-5------0-3-4--5-5-5--5-5-0--3-5----5-------------5-5-3-|

    -PRE CHORUS- (0:51, 1:55)

    G|----------------|
    D|----------------|
    A|-5--5--5--5-3---| (x4)
    E|--------------3-|

    -CHORUS- (1:00, 2:04, 2:58)

    G|-------------------------------------------|
    D|-------------------------------------------|
    A|-----------------------------------------7-|
    E|-5-5-5--5-5-5-5-5-5-7-0--8-8-8--8-8-7--8---|

    G|-------------------------------------------|
    D|--------------------------7-5-7-5----5--7--|
    A|--------------7---7---------------7--------|
    E|-5-5-5--5-7/9---9---7\5-5------------------|

    G|-------------------------------------------|
    D|-------------------------------------------|
    A|-----------------------------------------7-|
    E|-5-5-5--5-5-5-5-5-5-7-0--8-8-8--8-8-7--8---|

    G|-------------------------------------------|
    D|--------------------------7-5-7-5----5--7--|
    A|--------------7---7---------------7--------|
    E|-5-5-5--5-7/9---9---7\5-5------------------|

    G|-------------------------|
    D|-------------------------|
    A|-7--7--7---7-7-7-7-7-10*-|
    E|-------------------------|

    -BASS FILL- (2:40)

    G|-------|
    D|-----5-|
    A|-5-7---|
    E|-------|

    -GUITAR SOLO- (2:41)

    G|--------------------------------------------|
    D|--------------------------------------------|
    A|--------------------------------------------|
    E|-5-5-5--5-5-5--5-5-5--8-8-8--8-8-8--8-8-8---|

    G|-----------------------------------------|
    D|-----------------------------------------|
    A|-5-5-5--5-5-5--5-5-5---------------------|
    E|----------------------5-5-5-0-5--5-0-2-3-|

    -END- (3:17)

    G|-------------------------------------------|
    D|-------------------------------------------|
    A|-----------------------------------------7-|
    E|-5-5-5--5-5-5-5-5-5-7-0--8-8-8--8-8-7--8---|

    G|-------------------------------------------|
    D|--------------------------7-5-7-5----5--7--|
    A|--------------7---7---------------7--------|
    E|-5-5-5--5-7/9---9---7\5-5------------------|

    G|--------------------------|
    D|--------------------------|
    A|---------------------5-5*-|
    E|-5-5--5--5--5-3-0-3-------|





     
  4. Finger Blister

    Finger Blister

    Jul 8, 2003
    Some like to play the intro like this.
    Open A string, rather then 5th fret E string.
    Keep the beat with fret hand muting of the Open A.


    |------------------------|-------------------------|-------------------------|-------------------|
    |------------------------|-------------------------|-------------------------|-------------------|
    |-0--0--0--0--0-------3--|-0--0--0--0--0-----------|-0--0--0--0--0-------3---|-0-3-4--5-3-0-0----|
    |-----------------0-3----|----------------0-3-0-3--|----------------0-3------|-----------------3-|
     
  5. BIG MONTANA

    BIG MONTANA

    Apr 21, 2005
    north dakota
    dude why dont you just submit your tabs on an actually tablature site like www.mxtabs.net you could just put a link to your tab
     
  6. Finger Blister

    Finger Blister

    Jul 8, 2003
    I don't feel like it.

    Besides, it's compare and contrast.
     
  7. BIG MONTANA

    BIG MONTANA

    Apr 21, 2005
    north dakota
    k whatever dude. i just thouhgt maybe more people would see your ideas there
     
  8. but is the thingy good the tab???cuz it my first tab! :hyper: :hyper: :crying: :crying: ;) ;) :bag: :bag: :bassist:
     
  9. its a decent tab. but for future reference, its not a good idea to go around putting 'this is the REAL tab...' etc, this tends to annoy people, instead use 'This is my version of the said song, it sounds perfect when I play it...'etc.

    I personally never go to tabs with 'Song name. THE REAL WAY' etc in the title, not cause its bad, but because of the fact that there is no perfect way to play a song, just your way and others ways. I could it a different way and sound equally as good as the way you play it and vice versa. Anyway, no harm done. :)

    Good work tho, keep at it! :)
     
  10. flea claypool

    flea claypool

    Jun 27, 2004
    Ireland
    ITs ****in bollox.......
    your missing 3 notes from the first fecking bar!!
    finger blister knows what he is on about...
    and no need to be so arguementitive bout submiting tabs
     
  11. Agreed. Cá bhfuil tú i do chónaí? Táim as Luimneach. :hyper:
     
  12. flea claypool

    flea claypool

    Jun 27, 2004
    Ireland
    Bhi me ina chonai i gcontai Cork!!

    ya another irish man!! good on ya boy!!
     
  13. BIG MONTANA

    BIG MONTANA

    Apr 21, 2005
    north dakota
    if i were smart, I'd move to Ireland... If i were smart, I'd make an arrangement with God to change the weather, then I'd move to Ireland.
     
  14. Oy! None of that. There is no need for that kind of dismissal! You could have just said:

    "I dont like it, your missing three notes from the first bar, here, put this in and see how it sounds."

    I personally think it's comments like this that bring the forum down. whether or not he was being arguementative doesnt matter, two wrongs dont make a right.

    Encourage, dont dismiss.
     
  15. flea claypool

    flea claypool

    Jun 27, 2004
    Ireland
    ya but you cant go and say... "this is the real way"
    and then next off after recieving some critism say

    "but is the thingy good the tab???cuz it my first tab!"

    all NooBs make mistakes.. ive made plenty of them

    but he should have come across as if he was right

    im sorry i didnt mean to sound so offensive
     
  16. After four days of tabbing this song out, i think i've found every sonic nuance. That tab i posted above, which a lot of people said to be perfect seems to be way off. I'll work on posting my version in the future.
     
  17. bggeezer

    bggeezer Guest

    May 25, 2001
    uk
    Not much... you've missed out the E before the G and the A before the C in the first phrase... you've missed out both Es in the second phrase, repeated the mistakes in the 3rd phrase (repeat of 1st), missed out the VITAL string bend in the 4th phrase (5-6-5) which is a hook with the guitars throughout the WHOLE SONG, missed an A before the final G , and added two extra As for some reason. Plus the guy plays off the 5th fret of the E string, not open A... apart from that...PERFECT!!!:rollno::rollno::rollno: