Dismiss Notice

Psst... Ready to join TalkBass and start posting, make new friends, sell your gear, and more?  Register your free account in 30 seconds.

ATTENTION TAB USERS

Discussion in 'Miscellaneous [BG]' started by kirbywrx, Oct 1, 2001.


Thread Status:
Not open for further replies.
  1. kirbywrx

    kirbywrx formerly James Hetfield

    Jul 27, 2000
    Melbourne, Australia.
  2. Chris Fitzgerald

    Chris Fitzgerald Student of Life Staff Member Administrator

    Oct 19, 2000
    Louisville, KY
    I'd love to answer that, but my teeth seem to be embedded in my tongue.
     
  3. kirbywrx

    kirbywrx formerly James Hetfield

    Jul 27, 2000
    Melbourne, Australia.
  4. rather than using TAB why not just try and figure it out yourself?
     
  5. True dat!
     
  6. Its good to see that everyone is being so helpful! :rolleyes:
    Kirby, that tab was a mess! I managed to unscramble it, and it is alright now.

    Artist : Slipknot
    Track : Liberate
    Tune : (High to low) D, A, E, B ( 4- string bass )

    INTRO

    D -------------------------------------------------
    A -------------------------------------------------
    E -------------------------------------------------
    B -4-- 0--- 00--000--00--------------------

    VERSE 1

    D -------------------------------------------------
    A -------------------------------------------------
    E -------------------------------------------------
    B -1-0-------0-1-0-------- 0------4-------
    Bend on last note.

    VERSE 2
    D --=------------------------------------------------
    A ---------------------------------------------------
    E ---------------------------------------------------
    B -1--0---0-0-0-0-0---0-0-0---1--0-0---0-1-0---4
    Bend last note.

    BRIDGE 1and BRIDGE 2

    D --------------------------------------
    A --------------------------------------
    E --------------------------------------
    B -0-0---0-0---0-0---0-0---0-0-

    D ------------------------------------
    A ------------------------------------
    E -7----8-----7----8-----7----8
    B ------------------------------------


    PRE-CHORUS and CHORUS

    D ------------------------------------------------
    A ------------------------------------------------
    E -5--7-------------------------------------------
    B ----------7--7----9--9----10--10----12--12

    D ----------------------------------------------
    A ----------------------------------------------
    E ----------5^7--5----------------------7---------5---
    B ----------------------7-5--3------3---------5----

    BRIDGE

    D ---------------------------------------------
    A ---------------------------------------------
    E ---------------------------------------------
    B -5----7\-----0----x----0-0----x----0---

    D ---------------------------------------------
    A ---------------------------------------------
    E ---------------------------------------------------5-
    B -x---0-0----x----0-0-0---x---0--x-----5^7----

    OUTRO

    D ---------------------------------------------
    A ---------------------------------------------
    E ---------------------------------------------
    B ---------3---3---1-------3---3---1--------
     
  7. kirbywrx

    kirbywrx formerly James Hetfield

    Jul 27, 2000
    Melbourne, Australia.
    Hey lizard-king thanks heaps for that
    really appreiceated (or howeva u spell it):p
     
  8. Anytime! :)
     
  9. ashton

    ashton

    Jan 4, 2001
    Australia
    hey, dude
    could ya wanna play slipknot anyway. they suck. seriously man they use too much distortion and they only know like 2 notes. same as mudvayne, they suck badly but theyre bassist is at least half decent. if mudvaynes bassist mabey looked normal and played normal good music he probably could be a great solo bassist.
    later
    Lukas
     
  10. Chris Fitzgerald

    Chris Fitzgerald Student of Life Staff Member Administrator

    Oct 19, 2000
    Louisville, KY

    www.tabcrawler.com
     
  11. ashton

    ashton

    Jan 4, 2001
    Australia
    hi
    uhhh chris, Mr Moderator.......why did you copy my thread thingy. just wondering.
    later
    Lukas
    Ps i gotta go to work so ill be back on in about 6 hours.
     
  12. kirbywrx

    kirbywrx formerly James Hetfield

    Jul 27, 2000
    Melbourne, Australia.
    hey ashton
    this aint about personal thoughts about slipknot
    so u hate them thats ur two cents..my 2 is that i like them...but if u wanna judge bands...start another thread man..besides..this is about tabs. its just that the tab i needed help with was slipknot
    cya


    Kirby

    PS whats with that work out $%!*
     
  13. mikemulcahy

    mikemulcahy

    Jun 13, 2000
    The Abyss
    OK boys, lets take this one outside!!! We frown on this sort of thing.


    Mike
     
  14. ashton

    ashton

    Jan 4, 2001
    Australia
    hey
    well...........youre another aussie, that prank thing rocks and ill have to do it sometime( me and my friends combined have all the stuff we need to put up road blocks and maintain them, our council workers just leave theyre stuff laying around at midnight) but on the downside you like subarus, i dont like them but if i wanna talk about them ill start another thread. :) hehe.
    well good luck with the tab (however crap i think the band is ill respect you as another bass player)
    later
    Lukas
     
  15. jazzbo

    jazzbo

    Aug 25, 2000
    San Francisco, CA
    Enter HASBRO TABEVIL:

    First, honorable mention to www.tabcrawler.com. STRING OF DURRLS was most eloquent in his rebuttal to SMASHMOUTH'S, well, whatever the hell you want to call his post.

    So, for some stupid reason, I looked at the tab that was listed by THE-PISSING-KING. Way to be helpful, it looked very clear to me. The only thing is, damn if reading numbers is so hard for me. I guess it's like standard notation. Everyone thinks that reading the black dots is difficult, but then you do it, and you realize, like everything in life, (except for convincing the little lady to let you watch football), it's not that hard. Well, maybe tab is like that. Right now, all those numbers look incoherent to me. No rhythm, no meter, no dynamics, and just...well...numbers! For some reason, a little black dot has value in my musical, or lack of musical, mind, but these numbers. I mean, they're just numbers. Weird.

    So this song, has, what?, 10 notes?! Not bad. This is an excellent song to begin ear training with. I know TURTLEWAX has started some other threads about ear training, and learning songs, so it looks like an ongoing process. I'm sure you know KIRBYSUX (that one works on so many different levels!), that requests for tabs will be met with some indifference around here. This is a great song to begin the ear training process, should you choose. Now that you have the song, maybe you can even try working backwards, like listening over and over to the record, and trying to hear how the song was tabbed. Or, hell, just simply trying to hear the notes.

    Exit HASBRO TABEVIL:
     
  16. john turner

    john turner You don't want to do that. Trust me. Staff Member Administrator

    Mar 14, 2000
    atlanta ga
    u tAb h8trs R aLl tHe SaMe! TaBz aRe l33t!!
     
  17. embellisher

    embellisher Holy Ghost filled Bass Player Staff Member Supporting Member

    OK, kirby got his tabs, DURRLZ IN THA HOOD, HASBRO TABEVIL and BUN BURNER got their licks in, I'm gonna close this one down.:D
     



Thread Status:
Not open for further replies.