1. Please take 30 seconds to register your free account to remove most ads, post topics, make friends, earn reward points at our store, and more!  

Bad Girls - Jamiroquai version

Discussion in 'Tablature and Notation [BG]' started by Rhg, Jul 19, 2007.


  1. Rhg

    Rhg

    Jul 19, 2007
    Does anyone know of such a tab? If you do, please e-mail me at rasmusruler@hotmail.com or reply to this thread.

    Thank you in advance.
     
  2. i have a recording of jamiro doing bad girls. great jam, they do justice and then some.

    i'm a big j fan.
     
  3. verse

    --------------------------
    ---------------4-----------
    4---2-4-------------------
    ---4-----4--2---2--2-3-4

    --------------------------
    ------------------4---------6
    4----2-3-4------------- ~6-6
    ---4--------4--2---2--2

    --------------------------
    ---------------4-----------
    4---2-4-------------------
    ---4-----4--2---2--2-4

    --------------------------
    ------------------4-----4-5-6
    4----2-3-4-------------------6
    ---4--------4--2---2--


    and many other variations on this 2 bar C#, f# pattern with g#, B and E being the main passing notes as well as chromatic runs and some ghost/dead notes later on

    chorus
    ------------------------------------------------------------------------
    ---------------------------------------------------------------6-6-6-6-6
    -------------------------------------------------------------------------
    5-5--4-4--5---5-5--4-4--2--5-5--4-4--5--4-4-4-4-4-4-4-4----------
     
  4. I have some album (that I believe is a bootleg) called "Essential Live Covers" that has that song on it, likely the same one you have. They do justice to pretty much everything on there, Zender's tone and pocket on those songs is just a blast to listen to...

    P.S. the tab posted above looks pretty solid...
     
  5. Rhg

    Rhg

    Jul 19, 2007
    Thanks alot.
     

Share This Page

  1. This site uses cookies to help personalise content, tailor your experience and to keep you logged in if you register.
    By continuing to use this site, you are consenting to our use of cookies.