1. Please take 30 seconds to register your free account to remove most ads, post topics, make friends, earn reward points at our store, and more!  
     
    TalkBass.com has been uniting the low end since 1998.  Join us! :)

Black Sabbath NIB tab question

Discussion in 'Tablature and Notation [BG]' started by LoZer, May 20, 2003.


  1. LoZer

    LoZer

    May 20, 2003
    i want to play the intro bass solo to NIB by Black Sabbath, well this is all i found. Is this the intro or when he starts singing? if its not the intro, can some one give me a link or somethin for the bass intro?

    ||-----9-9-9---------7-7-7---------5-5-5--------4-----------
    ---------5-||---9-------9-----7-------7-----5-------5-----4-
    -----5h7---||-7-----------7-5-----------5-3-----------3-2---
    -5h7-------||-----------------------------------------------

    -4-4-----|-----9--9---------7--7---------5--5---------------
    -----4---|---9------9-----7------7-----5------5-------------
    -------2-|-7----------7-5----------5-3----------3-2-2-2-2-2-
    ---------|--------------------------------------------------
     
  2. LoZer

    LoZer

    May 20, 2003
  3. LoZer

    LoZer

    May 20, 2003
    Wah wah pedel? where can i get one of those?
     
  4. LoZer

    LoZer

    May 20, 2003
    yeh my friend has one, thanks creepy
     
  5. NV43345

    NV43345

    Apr 1, 2003
    What doe the "NIB" stand for ?
     
  6. Jodaka

    Jodaka

    Jun 28, 2001
    Riverview, FL
    nativity in black...

    jdkh
     
  7. NIB, didnt stand for nativity in black, it didnt stand for anything other then what you read, term nativity in black came along later and was just associated, but never planned to be that way