Dismiss Notice

Psst... Ready to join TalkBass and start posting, make new friends, sell your gear, and more?  Register your free account in 30 seconds.

Californication?

Discussion in 'Tablature and Notation [BG]' started by jani_bjorklund, Nov 22, 2003.


  1. jani_bjorklund

    jani_bjorklund

    May 22, 2002
    Finland
    What do you think? Mail me any corrections.


    Californication
    RHCP
    TablEdited by Jan Bjorklund
    Tuning : E A D G Time Signature: 4/4

    tempo 93
    |------------------------9---------------9-------7h9p7-----------|
    |7---------------7---------------------------------------10------|
    |----------------------------------------------------------------|
    |----------------------------------------------------------------|


    |------------------------7---------------7-----------------------|
    |------------------------------------------------10--------------|
    |8---------------8-----------------------------------------------|
    |----------------------------------------------------------------|


    |------------------------9---------------9-------7h9p7-----------|
    |7---------------7---------------------------------------10------|
    |----------------------------------------------------------------|
    |----------------------------------------------------------------|


    |------------------------10--------------10------7---------------|
    |----------------------------------------------------------------|
    |8---------------8------------------------------ and so on...----|
    |----------------------------------------------------------------|



    |------------------------9---------------9-------7h9p7-----------|
    |7---------------7---------------------------------------10------|
    |----------------------------------------------------------------|
    |----------------------------------------------------------------|


    |------------------------10--------------10------7/------5-------|
    |----------------------------------------------------------------|
    |8---------------8-----------------------------------------------|
    |----------------------------------------------------------------|


    |----------------------------------------------------------------|
    |----------------------------------------------------------------|
    |3---------------3-----------------------------------------------|
    |--------------------------------3---------------3---------------|


    |----------------------------------------------------------------|
    |----------------------------------------------------------------|
    |--------------------------------5---------------5---------------|
    |1-------1-------1/------3---------------------------------------|


    |------------------------9---------------9-------7h9p7-----------|
    |7---------------7---------------------------------------10------|
    |----------------------------------------------------------------|
    |----------------------------------------------------------------|


    |------------------------7---------------7-----------------------|
    |------------------------------------------------10--------------|
    |8---------------8-----------------------------------------------|
    |----------------------------------------------------------------|


    |------------------------9---------------9-------7h9p7-----------|
    |7---------------7---------------------------------------10------|
    |----------------------------------------------------------------|
    |----------------------------------------------------------------|


    |------------------------10--------------10------7---------------|
    |----------------------------------------------------------------|
    |8---------------8---------------------------------and so on ----|
    |----------------------------------------------------------------|




    |----------------------------------------------------------------|
    |----------------------------------------------------------------|
    |3---------------3-----------------------------------------------|
    |--------------------------------3---------------3---------------|


    |----------------------------------------------------------------|
    |----------------------------------------------------------------|
    |--------------------------------5---------------5---------------|
    |1---------------1/------3---------------------------------------|


    |----------------------------------------------------------------|
    |----------------------------------------------------------------|
    |----------------------------------------------------------------|
    |5---------------5-------5---5-------5---5-------7-------8-------|


    |----------------------------------------------------------------|
    |----------------------------------------10------9---------------|
    |8-------8---8---8-------8---8-------8-------------------10------|
    |----------------------------------------------------------------|


    |----------------------------------------------------------------|
    |7-------7---7---7-------7---7-------7---7-------9-------10------|
    |----------------------------------------------------------------|
    |----------------------------------------------------------------|


    |--------------------------------9---9---7-----------------------|
    |----------------------------10------------------10------9-------|
    |8-------8---8---8-------8---------------------------------------|
    |----------------------------------------------------------------|


    |----------------------------------------------------------------|
    |7-------7---7---7-------7---7-------7---7-------9-------10------|
    |----------------------------------------------------------------|
    |----------------------------------------------------------------|


    |----------------------------------------------------------------|
    |----------------------------------------10------9---------------|
    |8-------8---8---8-------8---8-------8-------------------10------|
    |----------------------------------------------------------------|


    |----------------------------------------------------------------|
    |7-------7---7---7-------7---7-------7---7-------9-------10------|
    |----------------------------------------------------------------|
    |----------------------------------------------------------------|


    |----------------------------------------------------------------|
    |----------------------------------------10------9---------------|
    |8-------8---8---8-------8---8-------8-------------------10------|
    |----------------------------------------------------------------|


    |----------------------------------------------------------------|
    |7-------7---7---7-------7---7-------7---7-------9-------10------|
    |----------------------------------------------------------------|
    |----------------------------------------------------------------|


    |----------------------------------------------------------------|
    |------------------------------------10--9-------7---------------|
    |8-------8---8---8-------8---8---------------------------8/--7---|
    |----------------------------------------------------------------|


    |----------------------------------------------------------------|
    |7---------------7-------7---7-------7---7-------9-------10------|
    |----------------------------------------------------------------|
    |----------------------------------------------------------------|


    |----------------------------------------------------------------|
    |----------------------------------------------------------------|
    |8-------8---8---8-------8---8---8---8---8-------8-------8/--5---|
    |----------------------------------------------------------------|


    |----------------------------------------------------------------|
    |----------------------------------------------------------------|
    |3---------------3-----------------------------------------------|
    |--------------------------------3---------------3---------------|


    |----------------------------------------------------------------|
    |----------------------------------------------------------------|
    |5---------------5-------5---7-----------------------------------|
    |--------------------------------5---------------5---------------|


    |----------------------------------------------------------------|
    |----------------------------------------------------------------|
    |3---------------3-------3---------------2-------3-------5-------|
    |----------------------------0---3-------------------------------|





    Created with TablEdit http://www.tabledit.com/

     
  2. Aaron Saunders

    Aaron Saunders

    Apr 27, 2002
    Ontario
    There's a tab in the Californication album bass book that is almost identical to that, and someone copied the same tab and submitted it to the Bass Tab Archive. This may actually be identical, just a wee bit more detailed with the time signature and tempo added in