1. Please take 30 seconds to register your free account to remove most ads, post topics, make friends, earn reward points at our store, and more!  
     
    TalkBass.com has been uniting the low end since 1998.  Join us! :)

Calliandra Shade - Need some guidance/help

Discussion in 'Tablature and Notation [BG]' started by DerTeufel, Aug 16, 2012.


  1. DerTeufel

    DerTeufel Supporting Member

    Nov 11, 2011
    Wildomar, CA


    It states that it's capo'd on the 6th fret. This is where I get frustrated. I tried coming up something based on the chords described there, but don't know where to start since there is a capo on the 6th fret. I've been playing an A# where the chord calls for Em and a C# where there is a C chord. Am I on the right track?
     
  2. DerTeufel

    DerTeufel Supporting Member

    Nov 11, 2011
    Wildomar, CA
    Ok, I found a chart online that gave me some guidance in regards to capo positions and the original chord and the actual chord being played. I then transposed the actual chords to root notes for the bass. I haven't tried this out yet, but I will this afternoon when I get home. If someone wants to try this out, please do! I'd like to know how it worked out.
     

    Attached Files:

  3. PlayTheBass

    PlayTheBass aka Mac Daddy Supporting Member

    Dec 7, 2004
    Carmichael, CA
    Howdy, sounds like Bb minor, here's the main riff...

    G|-----------------------------|--------3-------------------|
    D|--------3--------------------|--------------------6-------|
    A|--------------------6--------|----------------------------|
    E|4h6--------------------------|4h6-------------------------|

    G|-----------------------------|----------------------------|
    D|--------3--------------------|----------------------------|
    A|--------------------6--------|4-------4-------------------|
    E|4h6--------------------------|----------------6-----------|
     

Share This Page