Dismiss Notice

Psst... Ready to join TalkBass and start posting, make new friends, sell your gear, and more?  Register your free account in 30 seconds.

Can any1 get this tab?

Discussion in 'Tablature and Notation [BG]' started by Levi, Jul 8, 2004.


  1. Levi

    Levi

    Apr 4, 2004
    Larry graham and the central graham station > num 4 > "Hair"

    I try tabbing I couldn't, i made up my own tho. I look for a music transricption to support the guy and I couldn't find one. So I'm asking my friends can anyone tab it out? Or referr a book with it in it?
     
  2. cschenk78

    cschenk78

    Mar 12, 2000
    Watertown, NY
    There is a transcription in the September 1996 issue of Bass Player Mag...some fools like me keep that stuff around for a long time...

    You may be able to find it on their archives or maybe some person with no wife has made a PDF of all the BassPlayer back issues and has it hosted somewhere (hint hint to anyone with spare time and a scanner)

    good luck
     
  3. Levi

    Levi

    Apr 4, 2004
    THANKS!!!!!!
     
  4. Levi

    Levi

    Apr 4, 2004
    What will it take for me to get you to post the tab or get that mag from you?
     
  5. Timbo

    Timbo

    Jun 14, 2004
    I got the intro. Here it is

    H = Hammer
    S= Slide

    G---------------------------------------------------5-S7
    D-------------------5-----7--------------------5S7-----
    A--5H7---------------------------5---5S7---------------
    E---------0---0--3-----5----0--0---0----0---0------0---

    G---------------------------------9H7-----7H9------------
    D-------------5----7--------------------------------5---7
    A--------------------------5------------------------------
    E--0---0--3-----5----0--0---0-0--------0------0-3----5--0-

    G-----------------------------------------------------5S7
    D-----------------5-----7--------------------5S7-------
    A--------------------------------5---5S7------------------
    E------0---0--3-----5----0--0---0----0---0------0------

    G---------------------------------------------------9----12
    D---------------5--------7---------------------------------
    A-------------------------------------5-------7------------
    E---0---0---3-------5-------0----0-------0------0---------

    Thump and slap at will im too lazy to put that in. Man, that took waay to long to do. Good thing I got my teacher to tab it out for me a couple weeks ago to practice slapping.
    :bassist:
    take it easy.
     
  6. Levi

    Levi

    Apr 4, 2004
    wah, my version was really close all that is different really is i slided all instead of hammer-on, it was 6/7 and not 5h7 and those 5S7 wasn't there. I though I was completely wrong... But thanks
     
  7. Timbo

    Timbo

    Jun 14, 2004
    You might be right and my teacher could be wrong, I mean a a hammer on and a slide of like 2 frets sound extremely similiar. So whatever, your welcome. :)
     
  8. have u tried to go to mxtabs.net i have gone there for all of my tabs and they got alot of crap
     
  9. never mind
    they don't have that song in mxtabs.net
     
  10. Timbo

    Timbo

    Jun 14, 2004
    Yeah I checked before I had it tabbed for me,
    two best sites * in my opinion * are
    - Mxtabs.net
    - Basstabarchive.com