1. Please take 30 seconds to register your free account to remove most ads, post topics, make friends, earn reward points at our store, and more!  

Can anyone tab Dr. Dog "Stranger" (Video Included)

Discussion in 'Tablature and Notation [BG]' started by Icculus, Oct 22, 2010.


  1. Icculus

    Icculus

    Jul 29, 2010
    Brotherly Love
    I'm just trying to get the verse for this song. I thought I had it, but watching him as almost messed me up more. FYI, this guy has some awesome basslines.

     
  2. SoComSurfing

    SoComSurfing Mercedes Benz Superdome. S 127. R 22. S 12-13.

    Feb 15, 2002
    Mobile, Al
    Nothing to add other than saying thanks for the link. I hadn't picked up anything new from these guys since '06, so I'm happy to see they have newer material out. Gonna have to put in an order.
     
  3. Icculus

    Icculus

    Jul 29, 2010
    Brotherly Love
    Their newest album, "Shame Shame" is amazing
     
  4. dj4x1z

    dj4x1z

    Dec 28, 2009
    Northern Colorado
    I realize this was asked a while ago, but if you're still looking this is the verse.




    HTML:
     |       |       |       |        |       |       |       |        
    |--------------------------------|--------------------------------|
    |--------8-8-----10------8\------|--------5-5---------------------|
    |----8-------8-------------------|----5-------5-------------------|
    |6-------------------------------|3---------------3-------------3-|
     
     |       |       |       |        |       |       |       |        
    |--------------------------------|--------------------------------|
    |--------------------------------|--------------------------------|
    |3---3-----------3---3-----------|6---6-----------6---6-----------|
    |--------------3----------------|--------------6-----------------|
     

Share This Page

  1. This site uses cookies to help personalise content, tailor your experience and to keep you logged in if you register.
    By continuing to use this site, you are consenting to our use of cookies.