Can anyone tell me how to play...

Discussion in 'Tablature and Notation [BG]' started by duo8675309, Nov 6, 2005.


  1. duo8675309

    duo8675309

    Jun 5, 2005
    Cars by Gary Numan? I want to learn the main hook, not for a band or anything. Just for fun.
     
  2. Try this......it's not a bad approximation :)


    Gary Numan - Cars


    Intro/Verse
    x4 x2
    G|------------|----------|
    D|------------|----------|
    A|-5-4--------|------2---|
    E|-----3-5--5-|-2-3----3-|

    other instrumental part

    G|----7----4-5-4-----7---/10-9-----7----4-5-4----------7-
    D|------7--------------7-------------7---------------4h7--
    A|-5--------------5-------------5--------------5--5-------
    E|---------------------------------------------------------

    -----7---4h5-4-----7---/10-9-----7----4-5-4--------7--|
    -------7-------------7-------------7-----------4-7-----|
    --5--------------5-------------5-------------5---------|
    --------------------------------------------------------|
     
  3. duo8675309

    duo8675309

    Jun 5, 2005
    Awesome! Thank you so much!
     
  4. No problemo

    Enjoy :bassist: