Psst... Ready to join TalkBass and start posting, make new friends, sell your gear, and more?  Register your free account in 30 seconds.

Can u tell me if I tabbed this right

Discussion in 'Tablature and Notation [BG]' started by Trist6075, May 4, 2004.


  1. Trist6075

    Trist6075 Guest

    Mar 6, 2001
    Its the bassline for "ganja smugglin" by Eek a mouse. Its pretty much the same line over and over. Sounds the the basic groove is 1e a2 +a3e a4 +a. I am just starting to learn songs by ear and I think i might be a little off on the actual notes so if any of you guys can download this song and tell me if my version is right or if you can make any corrections I would really appreciate it. Here's what I came up with for the main part:

    A-2-----442------44 :

    E--2-02----2--02--- : :help: :help:

    Then ...

    A-----2------

    E-00-0--0022-22----- 1e a2 +a3e a4 +a

    Thats's what I came up with I'm sure its not all the way there but if you guys could let me know if anything could be fixed i would appreciate it. There's some variations in the song but this is the most basic part I am working on sorry I am new to this. The only other way I think the first part might be played is by landing on the B instead of F# on beat 2 and then playing higher F#s instead of C#s.

    Thanks a lot,
    Tristan
     
  2. hateater

    hateater snatch canadian cream

    May 4, 2001
    Eugene, OR
    Eek a mouse is cool! Oh... the tab? Who knows, probably right.
     
  3. jani_bjorklund

    jani_bjorklund

    May 22, 2002
    Finland
    This is from the studio version...


    TablEdited by Poppamies
    Tuning : E A D G Time Signature: 4/4
    Tempo 142


    |0-----------------------0---0---|0-----------------------0---0---|
    |--------------------------------|--------------------------------|
    |----3-------3---3---------------|----3-------3---3---------------|
    |--------------------------------|--------------------------------|


    |0-------------------------------|------------------------0---0---|
    |------------------------3---3---|3-------------------------------|
    |----1-------1---1---------------|----3-------3---3---------------|
    |--------------------------------|--------------------------------|


    |0-----------------------0---0---|0-----------------------0---0---|
    |--------------------------------|--------------------------------|
    |----3-------3---3---------------|----3-------3---3---------------|
    |--------------------------------|--------------------------------|