Dismiss Notice

Psst... Ready to join TalkBass and start posting, make new friends, sell your gear, and more?  Register your free account in 30 seconds.

Chef - Simultaneous

Discussion in 'Tablature and Notation [BG]' started by heath_the_great, Sep 22, 2004.


  1. just curious, has anyone come across this in their tab searching efforts or knows how to play it and can send me a chord chart or something...i dont know what it is....its just one of those songs i cant figure out
     
  2. jonboyjon

    jonboyjon

    May 7, 2010
    yh - this is a song that i've been wanting to know for ages.

    I can't figure out the actual bass part - especially the awesome slap part in the chorus - but here is the sort of root notes of some pieces (or basic melody) and maybe people can figure it out a bit more from there (listen to track for timings):

    Intro:

    G-------------------------------------
    D-------------------------------------
    A--3-----------------3-------------2--
    E-------1----3-------------1----3-----

    Chorus:

    G-------------------------------------
    D-------------------------------------
    A--3-------------1---1--1-1---------- x3
    E------0-1----3-----------------------

    G-------------------------------------
    D-------------------------------------
    A--3----------------1-----------------
    E------0-1---2-3----------------------

    No idea what's happening in the verses

    Horn Interlude - (I don't know much of it):

    G------------
    D--6----3-4--
    A------------ That's it - then.....
    E------------

    G------------------4--
    D--6----3-4---3-4----
    A---------------------
    E---------------------

    Then just play the chorus part in the higher octave. or play all of this is the lower octave.

    Don't really know anything else - and it's not even the actual bass part