Christian McBride Tabs??

Discussion in 'Tablature and Notation [BG]' started by Sixmax, Jan 9, 2006.


  1. Sixmax

    Sixmax

    Dec 5, 2005
    Copenhagen
    Hey guys.

    Can you tell me where i can find the tabs for Christian McBride's track called "Family Affair". Not only tabs are welcome, but also chords. Just something i can use. Thank you!

    Sixmax
     
  2. Nope but I learnt this fantastic mcBride bass line last night.
    Hope this is right, its from memory and I don't have my bass to hand.

    Via Mwandishi from the Sci-Fiction album. Think it's in time signature 15/8


    ------------------8-7-----------
    -----------8-10-------8-10---
    ---------------------------------
    ----6--8------------------------


    ----------------------------------
    ----10-8-------------------------
    ----------11-8-----11------------
    ----------------11-----6--9------


    Love this track - its sooo cool!