Psst... Ready to join TalkBass and start posting, make new friends, sell your gear, and more?  Register your free account in 30 seconds.

Chuck Mangione's "Feels So Good"

Discussion in 'Tablature and Notation [BG]' started by rojo412, Jan 25, 2005.


  1. rojo412

    rojo412 MARK IT ZERO! Supporting Member

    Feb 26, 2000
    Cleveland, OH.
    Yeah, sounds kinda dorky, but the song is SICK and the bassline is great, but so freakin' hard. Anyone have any tips? I've been trying to just get the roots of it, but it changes really fast.
    Thanks!
     
  2. [​IMG]

    "Chuck Mangione..."
     
  3. jani_bjorklund

    jani_bjorklund

    May 22, 2002
    Finland
    How does this feel?


    Feels So Good.btab
    Chuck Mangione
    TablEdited by Poppamies
    Tuning : E A D G Time Signature: 4/4

    tempo 106
    |--------------------------------|----------------------------5---|
    |------5-5-------------5-5-------|------5-5-------------5-5-------|
    |3-------------3-----------------|3-------------3-----------------|
    |----------------------------3---|--------------------------------|


    |--------------------------------|----------------------------5---|
    |------5-5-------------5-5-------|------5-5-------------5-5-------|
    |3-------------3-----------------|3-------------3-----------------|
    |----------------------------3---|--------------------------------|


    |--------------------------------|--------------------------------|
    |------5-5-------------5-5-------|------5-5-------------5-5-------|
    |3-------------3-----------------|3-------------3-----------------|
    |----------------------------3---|----------------------------3---|


    |----------------------------5---|----------------5---------------|
    |------5-5-------------5-5-------|--------------------------------|
    |3-------------3-----------------|3---------------------------3---|
    |--------------------------------|--------------------------------|


    |--------------------------------|--------------------------------|
    |3---------------3-------2-------|0---------------0---------------|
    |--------------3-----------------|--------------0-----------------|
    |--------------------------------|----------------------0-1---2---|


    |----------------0---------------|--------------5-3-----3-5-----2-|
    |--------------0---------0-------|------------5-------------------|
    |----------------------0---------|3-------------------------------|
    |3---------------------------3---|--------------------------------|


    |--------------------------------|----------------7---------------|
    |--------------------------------|--------------7---------7-------|
    |--------------0-0-----2-3---4---|5---------------------5-----5---|
    |--------------------------------|--------------------------------|


    |--------------------------------|--------------------------------|
    |5---------------5-------3---3---|----------and so on-------------|
    |--------------5-------5---------|--------------------------------|
    |--------------------------------|--------------------------------|
    Transcribe! 6.0 transcription http://www.seventhstring.demon.co.uk/
    Created with TablEdit http://www.tabledit.com/
    http://www.geocities.com/jani_bjorklund/janis.html