Dismiss Notice

Psst... Ready to join TalkBass and start posting, make new friends, sell your gear, and more?  Register your free account in 30 seconds.

cosmic highway jam

Discussion in 'Tablature and Notation [BG]' started by funktastic, Sep 28, 2005.


  1. funktastic

    funktastic

    Mar 16, 2005
    Can anyone help me out on the song "Cosmic Highway" by the Frog Brigade? I know the song until the break when he turns on the envelope filter, that whole part, especially when him and the guitar trade licks is what im trying to figure out. For some reason i have a hard time tabbing something to an effect like his filter. Thanks for the help
     
  2. This is probably my favorite Claypools song. It's such a great song, it's long but it doesn't get boring, there's GREAT playing from the whole band, and the lyrics can be hilarious. I've been hoping for a tab too, but I can't find one anywhere. There are now 2 requests for this one.
     
  3. I know how to play it, should i just tab it out in a reply?
     
  4. That would be awesome, but it's gonna take a while. But if you're willing to take the time, thanks in advance.
     
  5. how do yall usually do it?

    btw, I'm new
     
  6. --------------------------------------------------------
    -7777-10-8-7---------------4444-7-5-4-------------------
    ---------------5-xx-5-x5-----------------5-xx-5-x5-------
    ----------------------------------------------------------


    ---------------------------------------------------------
    -7777-10-8-7----4444-7-5-4445-4-------------------------
    -----------------------------------7-5-xx-5-x5--5-xx-5-x5-
    ----------------------------------------------------------


    ---5h7-x7--5h7-x7--5h7-x7--5h7-77--
    --------------------------------------
    --------------------------------------
    --------------------------------------


    --5h7-77--5h7-77--5h7-5-4-5-4--4------------
    --------------------------------7--7-5-7-5-4-
    ----------------------------------------------
    ----------------------------------------------
    continued
    ----------------------------------------------------------
    -4----5----x77-7-7----x5h7--x5h7--x5h7--5h7-5-4-5-4--4-
    -------------------------------------------------------7-7-
    ----------------------------------------------------------
    continued
    ------------------------------
    ------------------------------
    -5-xx-5-x5---5-xx-5-x5-------
    ------------------------------


    this is the beginning of the solo. I tried to space it so that the timing was right, but if you know the song it shouldn't be a problem. the "continued" means that those lines are flow together.

    I'm about to go to work, so i'll do the Bass/Guitar part later.

    tell me what you think