Cryptopsy'Soar and envision sore vision' intro

Discussion in 'Tablature and Notation [BG]' started by Vorago, Jul 2, 2004.


  1. Vorago

    Vorago (((o)))

    Jul 17, 2003
    Antwerp, Belgium
    A friend of mine gave me this tab to try it out. Its the intro of a song by Cryptopsy, called 'Soar and envision sore vision', I can play it up to speed, but the tab doesn't seem right to me..Any suggestions here?

    Thanks alot
    You can check out the intro here:

    http://medieteknik.bth.se/joba01/sound/EricSoar.mp3

    INTRO
    G|-------------------------21-------24--|
    D|----------17-15-------19----19-20-----|
    A|-*0----16-------19-22-----------------| 2x
    E|----18--------------------------------|
    B|-10-----------------------------------|
    * Use instead of 10 if needed

    G|----18-12-------------------|
    D|----------11-8--------------|
    A|-*0------------10-7---------|
    E|--------------------9-6-----|
    B|-10---------------------9-6-|
    * Use instead of 10 if needed
     
  2. Vorago

    Vorago (((o)))

    Jul 17, 2003
    Antwerp, Belgium
    Anyone? :(