DMV main riff??

Discussion in 'Technique [BG]' started by XxBassmanxX, Nov 30, 2001.


  1. XxBassmanxX

    XxBassmanxX

    Nov 21, 2001
    Rosman NC
    Heh all this argueing kinda got me curious about DMV. Kinda wierd sounding but i think i got the main riff. This anywhere close?

    G-------------------18-------------------17------

    D------------------------17-------------17------

    A-----16---------------------16-----------------

    E--9------16---9------------------9------------

    L R R R R R L
     
  2. Aenema

    Aenema

    Apr 18, 2001
    Michigan
    i think the only way we will know is if someone talks to les himself. :D
     
  3. geshel

    geshel

    Oct 2, 2001
    Seattle
    basic riff (from Pork Soda - what recording are you using? Must be down a half step for some reason):

    G---------------19-------------18--18-----18---

    D----18------------18---------------------------

    A-------17-------------17-----------------------

    E--10------10--------------10-------------------

    alternate (there are a lot this is just one)

    G---------------19-------------18--18-----18-18

    D----18------------18----------17--17-----17-17

    A-------17-------------17-----------------------

    E--10------10--------------10------------------

    Of course he plays it on a 6, with the D on the 15th fret of the B string.

    Now, if somebody could show me the funky breakdown, I'd be happy. :)