Drugs In My Pocket.... The Monks

Discussion in 'Tablature and Notation [BG]' started by ::::BASSIST::::, Apr 6, 2005.


  1. ::::BASSIST::::

    ::::BASSIST:::: Progress Not Perfection.

    Sep 2, 2004
    Vancouver, BC Canada
    Its a great song, but its nowhere to be found on the net. Pretty obscure i guess.

    Can anyone give me some direction with this song?
     
  2. DaftCat

    DaftCat

    Jul 26, 2004
    Medicine Hat
    I've got drugs in my pocket & I don't know what to do with them

    -------------------------------------------------------------
    -------14--------------12----14-----------------------------
    ----------------------------------14--------10----9---------
    --12--------12----10-------------------12--------------10--



    Do I really need.... Watch my life waste by...

    ----------------------------------------------------
    ----------------------------------------------------
    ----------------------------------------------------
    ---5----5-------5----5-------5----5-------5----5---

    ----------------------------------------------------
    ----------------------------------------------------
    ----------------------------------------------------
    ---6----6-------6----6-------6----6-------6----6----

    ----------------------------------------------------
    ----------------------------------------------------
    ---5----5-------5----5-------5----5-------5----5----
    ----------------------------------------------------

    ----------------------------------------------------
    ----------------------------------------------------
    ----------------------------------------------------
    ---6----6-------6----6-------6----------------------


    Got some real hard drugs... All the way from.....Try some..

    ------------------------------------------------------------
    ------------------------------------------------------------
    ---------------------------5-----5-----6-----5-----6-----5--
    ---5----5------6----6---------------------------------------


    Hope this helps,
     
    Kev_B likes this.