Eagles

Discussion in 'Tablature and Notation [BG]' started by Bass-Blumi, Oct 15, 2003.


  1. Hi you bassin´ guys!
    Although there are a few eagles bass tabs on this site (for example hotel california) i´m missing some very importantz of them. In other words:
    I´m searching for the tabs "Take It Easy", "Desperado", "Doolin Dalton" and "TEquila Sunrise".

    Thanks for your help!
     
  2. poppamies

    poppamies

    Dec 15, 2002
    Since the situation is obviously that bad I'll do them for you one at a time starting right now.
     
  3. poppamies

    poppamies

    Dec 15, 2002
    Here you are! This is a live version recorded after the "reunion". Hope it suits you.

    Eagles Tequila Sunrise(live late version).btab

    I have also submitted the compleate basstab to OLGA

    Tuning : E A D G Time Signature: 4/4

    tempo 108 | | | | | |
    |--------------------------------|--------------------------------|
    |--------------------- Guitar intro -----------------------|
    |--------------------------------|--------------------------------|
    |--------------------------------|--------------------------------|

    |--------------------------------|--------------------------------|
    |--------------------------------|--------------------------------|
    |--------------------------------|--------------------------------|
    |--------------------------------|------------------------1/3-4---|


    |--------------------------------|--------------------------------|
    |--------------------------------|--------------------------------|
    |----------------7---------------|5-----------5---6h7-----5-------|
    |5-----------5-------------------|--------------------------------|


    |--------------------------------|--------------------------------|
    |--------------------------------|5-----------5-------------------|
    |----------------5---------------|----------------5-------5-------|
    |3-----------3-------------------|--------------------------------|

    It's another Te-| | quila sunrise | |
    |--------------------------------|--------------------------------|
    |--------------------------------|5-----------5-------------------|
    |----------------5---------------|----------------5---------------|
    |3-----------3-------------------|--------------------------------|

    |--------------------------------|--------------------------------|
    |----------------7---------------|----------------7---------------|
    |5-----------5-------------------|5-----------5-----------5-------|
    |--------------------------------|--------------------------------|

    |--------------------------------|--------------------------------|
    |--------------------------------|--------------------------------|
    |----------------7---------------|5-----------5---6h7-----5-------|
    |5-----------5-------------------|--------------------------------|

    |--------------------------------|--------------------------------|
    |--------------------------------|5-----------5-------------------|
    |----------------5---------------|----------------5-------4h5-----|
    |3-----------3-------------------|--------------------------------|

    He was just a | | hired hand... | |
    |--------------------------------|--------------------------------|
    |--------------------------------|5-----------5-------------------|
    |----------------5---------------|----------------5-------5-------|
    |3-----------3-------------------|--------------------------------|

    |--------------------------------|--------------------------------|
    |----------------7---------------|----------------7---------------|
    |5-----------5-------------------|5-----------5-----------5-------|
    |--------------------------------|--------------------------------|


    |--------------------------------|--------------------------------|
    |--------------------------------|--------------------------------|
    |----------------7---------------|5-----------5---6h7-----5-------|
    |5-----------5-------------------|--------------------------------|


    |--------------------------------|--------------------------------|
    |--------------------------------|5-----------5-------------------|
    |----------------5---------------|----------------5-------5---6---|
    |3-----------3-------------------|--------------------------------|

    Every night when|the | sun goes|down...| |
    |--------------------------------|--------------------------------|
    |--------------------------------|--------------------------------|
    |7-----------7---7---------------|--------------------------------|
    |--------------------------------|8-----------8---8---------------|

    |--------------------------------|--------------------------------|
    |--------------------------------|--------------------------------|
    |7-----------7---7---------------|--------------------------------|
    |--------------------------------|8-----------8---8---------------|


    |--------------------------------|--------------------------------|
    |--------------------------------|--------------------------------|
    |7-----------7---7-----------5---|--------------------------------|
    |--------------------------------|5---------------5---------------|

    |--------------------------------|--------------------------------|
    |----------------7---------------|----------------7---------------|
    |5-----------5-------------------|5-----------5-----------5-------|
    |--------------------------------|--------------------------------|

    She wasn't just an- | other woman... | |
    |--------------------------------|--------------------------------|
    |5-----------5-------------------|5-----------5-------------------|
    |----------------5---------------|----------------5-------3---4---|
    |--------------------------------|--------------------------------|


    |--------------------------------|--------------------------------|
    |----------------7---------------|----------------7---------------|
    |5-----------5-------------------|5-----------5-----------5-------|
    |--------------------------------|--------------------------------|


    |--------------------------------|--------------------------------|
    |--------------------------------|--------------------------------|
    |----------------7---------------|5-----------5---6h7-----5-------|
    |5-----------5-------------------|--------------------------------|


    |--------------------------------|--------------------------------|
    |--------------------------------|5-----------5-------------------|
    |----------------5---------------|----------------5-------4h5-----|
    |3-----------3-------------------|--------------------------------|

    Oh and it's a | | hollow feeling... |
    |--------------------------------|--------------------------------|
    |--------------------------------|5-----------5-------------------|
    |----------------5---------------|----------------5-------3---4---|
    |3-----------3-------------------|--------------------------------|


    |--------------------------------|--------------------------------|
    |--------7-------7---------------|----------------7---------------|
    |5-----------5-------------------|5-----------5-----------5-------|
    |--------------------------------|--------------------------------|


    |--------------------------------|--------------------------------|
    |--------------------------------|--------------------------------|
    |----------------7---------------|5-----------5---6h7-----5-------|
    |5-----------5-------------------|--------------------------------|


    |--------------------------------|--------------------------------|
    |--------------------------------|5-------------------------------|
    |----------------5---------------|----------------5-------4h5-----|
    |3-----------3-------------------|--------------------------------|

    S O L O | | | | | | |
    |--------------------------------|--------------------------------|
    |--------------------------------|5-----------5-------------------|
    |----------------5---------------|----------------5-------3---4---|
    |3-----------3-------------------|--------------------------------|


    |--------------------------------|--------------------------------|
    |----------------7---------------|----------------7---------------|
    |5-----------5-------------------|5-----------5-----------5-------|
    |--------------------------------|--------------------------------|


    |--------------------------------|--------------------------------|
    |--------------------------------|--------------------------------|
    |----------------7-------7-------|5-----------5---6h7-----5-------|
    |5-----------5-------------------|--------------------------------|


    |--------------------------------|--------------------------------|
    |--------------------------------|5-----------5-------------------|
    |----------------5-------5-------|----------------5---------------|
    |3-----------3-------------------|--------------------------------|



    I have submitted the compleate basstab to OLGA and I'll submit the rest of the requested to OLGA soon.