1. Please take 30 seconds to register your free account to remove most ads, post topics, make friends, earn reward points at our store, and more!  
     
    TalkBass.com has been uniting the low end since 1998.  Join us! :)

FINALLY learned Calm Like A Bomb bass solo

Discussion in 'Miscellaneous [BG]' started by ZoSoIV, Aug 26, 2007.


  1. ZoSoIV

    ZoSoIV

    Mar 28, 2007
    Massachusetts
    Im very proud of myself right now, its definitely the hardest bassline tidbit I can play. So yeah, just kinda, posting this to commend myself. *pats self on back*

    If you wanna know the one I'm talking about:
    Intro Solo
    G|-----0-2-------------------------------|
    D|-2-4------4-2-0-2-4-5--5-2---------2-4-|
    A|---------------------------5-4-0-5-----|
    E|---------------------------------------|

    G|------------------------------------------------|
    D|---------0-2--2--------------------2---0--4-0-2-|
    A|-5-4-2-4--------4-2-1-----2--5-2-4---4----------|
    E|-----------------------2------------------------|

    G|-----0-2---------------------------|
    D|-2-4------4-2-0-2-4-5--5-2---------|
    A|---------------------------5-4--0--|
    E|-----------------------------------|
     

Share This Page