Dismiss Notice

Psst... Ready to join TalkBass and start posting, make new friends, sell your gear, and more?  Register your free account in 30 seconds.

Foo Fighters - Breakout (wrong)...

Discussion in 'Tablature and Notation [BG]' started by JustSoYouKnow, Sep 9, 2002.


  1. JustSoYouKnow

    JustSoYouKnow

    Aug 30, 2002
    I have just been going through some tabs and i found that the tab for Breakout by Foo Fighters is in-correct.

    There is one part that i can tell is wrong. The part near the end where Dave is screaming "breakout!!!".

    On the video for this song Nate plays down to one of the higher notes on the E or A string (i can't tell which). This can also be clearly heard in the song itself.

    As i can't tab songs i would be most greatful if somebody could post a correction to this tab.

    Thanks for your time :)
     
  2. dregen

    dregen

    Oct 16, 2010
    Break out____________ Break out___________ Break
    ---------------------------------------------------------------------
    ---------------------------------------------------------6-7-9-9-9-
    2-2-0-0-0--4-4__4-7-7--7-7-7--2-2-0-0-0--4-4-7-9-------------
    ---------------------------------------------------------------------


    out____________ Break out___________ Go, go, go
    ---------------------------------------------------------------------
    ---------------------------------------------------------6-----------
    2-2-0-0-0--4-4__4-7-7--7-7-7--2-2-0-0-0--4-4-7-9---9-7-7-6-4
    ----------------------------------------------------------------------



    ----------------------9_11-11-----11-
    --------------------9-----------11-----
    2-2-0-0-0--4-4-7--------------------- X4
    ----------------------------------------