Psst... Ready to join TalkBass and start posting, make new friends, sell your gear, and more?  Register your free account in 30 seconds.

Get Up And Jump tab

Discussion in 'Tablature and Notation [BG]' started by monkeylover009, Jun 8, 2005.


  1. Rights lads!
    Downloaded a video of flea showing ya how get up and jump is played and the funky is nothing like in this archive so i thought id share it with use!
    Hes tuned everything down half a step (Eb,Ab,Db,Gb)

    Pretty much goes like this:

    ||----------------------------------------
    ||-----5-----3------5------3------3h5----
    ||----------------------------------------
    ||-03----xx-----xx-----xx-----xx----------

    ||----------------------------------------
    ||-----5-----3------5------3------2h3----
    ||----------------------------------------
    ||-03----xx-----xx-----xx-----xx----------

    ||----------------------------------------
    ||-----5-----3------5------3------3h5----
    ||----------------------------------------
    ||-03----xx-----xx-----xx-----xx----------

    ||----------------------------------------
    ||-----5-----3------5------3------2h3----
    ||----------------------------------------
    ||-03----xx-----xx-----xx-----xx----------

    ||------------3------------3------3h4-----
    ||-----5------------5---------------------
    ||----------------------------------------
    ||-03----xx-----xx-----xx-----xx----------

    ||------------3------------3h4------------
    ||-----5------------5--------------3h4----
    ||-----------------------------------------
    ||-03----xx-----xx-----xx-------x----------

    Thats what plays on the lesson.
     
  2. Matt Till

    Matt Till

    Jun 1, 2002
    Edinboro, PA
    That song taught me how to slap while using too many dead notes... thanks Flea. :meh:
     
  3. I thought I was the only one hip to the Pepper's first album. It's good to know I'm not. :cool:
     
  4. Its a shame every album isnt like there first... :crying:
     
  5. chilipepperflea

    chilipepperflea Guest

    Apr 13, 2005
    East Anglia
    apprantly their next album is going back to their more early funk style which is good news! gonna be released in the autum :)
     
  6. Matt Till

    Matt Till

    Jun 1, 2002
    Edinboro, PA
    Oh, you mean awful? Yeah, they should go for that more often.

    "Police Helicopter Shot From the Sky, Police Helicopter Landed in my Eye." - Kedis.
     
  7. Let's meet in 15 years & see if anyone is quoting your first album. :eyebrow:
     
  8. Hard not to destroy you with verbal abuse but i dont want a be thrown of this site cause i like it so much! Ill just argue that thier first was their funkiest and had all the best bass lines unlike the crap their making these days!
     
  9. Matt Till

    Matt Till

    Jun 1, 2002
    Edinboro, PA
    New sig.
     
  10. Chili

    Chili

    Mar 8, 2005
    Newcastle/England
    hey again chili pepper Flea, is this deffinitly true!!??, and this auutmn, that will be awsome!!!

    There first album was just fun and funky, nothing to be taken to seriously, but non of there music is crap, its all awsome in my veiw