Psst... Ready to join TalkBass and start posting, make new friends, sell your gear, and more?  Register your free account in 30 seconds.

glassjaw - pretty lush

Discussion in 'Tablature and Notation [BG]' started by jaworski, Jul 8, 2003.


  1. jaworski

    jaworski

    Aug 18, 2002
    hey everyone, was just wondering if you guys could just give me some advice on this one song im trying to learn (glassjaw - pretty lush). i got the official tab from glassjawband.com but some parts i just can't seem to get and was wondering if anyone else who knows this song or could just put relevant input into my learning...

    in the chorus the part that goes ( i just can't do it so fast, once i slide my index finder i can't get it back to hit the a10 on time:
    G:----------------------------------------------|
    D:----10/12----10/12----10/12----10/12----10/12-|
    A:-10-------10-------10-------10-------10-------|
    D:----------------------------------------------|

    this part, the 00000 imbetween - how can someone get 5 notes in so fast... i just dont know how its possible, is he really playing what he's saying he is (anyone know?):
    G:-----------------------------------------------|
    D:-----------------------------------------------|
    A:-----------------------------------------------|
    D:-000--00000--000--00000--000--00000--0-2-3-5-6-|


    -----

    here's the full song anyway, if it helps:

    Verse 1

    G:----------------------------------------------------------------|
    D:----------------------------------------------------------------|
    A:----------------------------------------------------------------|
    D:-0--------0-0-0--0-0-0--0-0-0--0-0-0--0-0-0--0-0-0-0-2--3--5--6-|

    G:--------------------------------------------------------|
    D:--------------------------------------------------------|
    A:--------------------------------------------------------|
    D:-0-0-0--0-0-0--0-0-0--0-0-0--0-0-0--0-0-0--0-2--3--5--6-|

    G:--------------------------------------------------------|
    D:--------------------------------------------------------|
    A:--------------------------------------------------------|
    D:-0-0-0--0-0-0--0-0-0--0-0-0--0-0-0--0-0-0--0-2--3--5--6-|

    G:--------------------------------------------------------------|
    D:--------------------------------------------------------------|
    A:--------------------------------------------------------------|
    D:-0-0-0--0-0-0--0-0-0--0-0-0--0-0-0--0-0-0--0-2--3--5--6-0-2-3-|


    Pre-Chorus

    G:------------------------------5/7--5---------------------------------------------------|
    D:-------3--3/5--3-----------5----------7------------------------------------------------|
    A:----3-------------3-----3----------------6-6-6-6-6-6-6-6-6-6-6-6-6-6-6-----------------|
    D:-3-------------------3-------------------------------------------------6-6-6-6-6-6-6-6-|

    G:---------------------------9--9/10--9-------------10--10/12--10------|
    D:-----------------------10--------------10-----10-----------------12\-|
    A:--------------------8----------------------8-------------------------|
    D:-1-1-1-1-1-1-1-1-1/--------------------------------------------------|

    G:-----------------------------------------------------------|
    D:-----------------------------------------------------------|
    A:-6-6-6-6-6-6-6-6-6-6-6-6-6-6-6-----------------------------|
    D:-------------------------------6-6-6-6-6-6-6-6-1-1-1-1-1-1-|

    Chorus

    G:---------------------------------------------------------------------------------|
    D:---------------------------------------------------------------------------------|
    A:---------------------------------------------1-1-3-3-3-1-1-1---------------------|
    D:-5-5-5-5-5-5-5-5-5-5-5-5-5-5-5-0-1-1-1-1-1-1-----------------3-3-5-5-5-5-5-5-5-5-|

    G:-------------------------------------------------------------------------------------------|
    D:-------------------------------------------------10/12----10/12----10/12----10/12----10/12-|
    A:-----------------------------1-1-3-3-3-1-1----10-------10-------10-------10-------10-------|
    D:-5-5-5-5-5-5-5-0-1-1-1-1-1-1---------------3/----------------------------------------------|

    G:--------------------------------------------------------------------------------|
    D:-----6/8---6/8---6/8---6/8---6/8------10/12----10/12----10/12----10/12----10/12-|
    A:-0-6-----6-----6-----6-----6-----0-10-------10-------10-------10-------10-------|
    D:--------------------------------------------------------------------------------|

    G:----------------------|
    D:-----6/8---6/8---8----|
    A:-0-6-----6-----6------|
    D:--------------------0-|

    2nd Verse

    G:-------------------------------------------------------|
    D:-------------------------------------------------------|
    A:-------------------------------------------------------|
    D:-0-0-0--0-0-0--0-0-0--0-0-0--0-0-0--0-0-0-0-2--3--5--6-|

    G:-----------------------------------------------------|
    D:-----------------------------------------------------|
    A:-----------------------------------------------------|
    D:-0-0-0--00000--0-0-0--00000--0-0-0--00000--0-2-3-5-6-|

    G:----------------------------------------------------|
    D:----------------------------------------------------|
    A:----------------------------------------------------|
    D:-0-0-0--0-0-0--0-0-0--0-0-0--0-0-0--0-0-0-0-2-3-5-6-|

    G:-----------------------------------------------------------|
    D:-----------------------------------------------------------|
    A:-----------------------------------------------------------|
    D:-0-0-0--00000--0-0-0--00000--0-0-0--00000--0-2-3-5-6-0-2-3-|

    2nd Pre-Chorus

    G:------------------------------5/7--5---------------------------------------------------|
    D:-------3--3/5--3-----------5----------7------------------------------------------------|
    A:----3-------------3-----3----------------6-6-6-6-6-6-6-6-6-6-6-6-6-6-6-----------------|
    D:-3-------------------3-------------------------------------------------6-6-6-6-6-6-6-6-|

    G:---------------------------9--9/10--9-------------10--10/12--10------|
    D:-----------------------10--------------10-----10-----------------12\-|
    A:--------------------8----------------------8-------------------------|
    D:-1-1-1-1-1-1-1-1-1/--------------------------------------------------|

    G:-----------------------------------------------------------|
    D:-----------------------------------------------------------|
    A:-6-6-6-6-6-6-6-6-6-6-6-6-6-6-6-----------------------------|
    D:-------------------------------6-6-6-6-6-6-6-6-1-1-1-1-1-1-|

    2nd Chorus

    G:---------------------------------------------------------------------------------|
    D:---------------------------------------------------------------------------------|
    A:---------------------------------------------1-1-3-3-3-1-1-1---------------------|
    D:-5-5-5-5-5-5-5-5-5-5-5-5-5-5-5-0-1-1-1-1-1-1-----------------3-3-5-5-5-5-5-5-5-5-|

    G:------------------------------------------------------------------------------|
    D:-------------------------------------------------------------/7-7-7-5-5-5-----|
    A:-----------------------------1-1-3-3-3-1-1----------------5-5-------------5---|
    D:-5-5-5-5-5-5-5-0-1-1-1-1-1-1---------------3/-5-5-5-5-5-5-------------------0-|

    G:---------------------------------------------------------------------------------|
    D:------------------------------------------------/7-7-7-5-5-5---------------------|
    A:-------------1-1-3-3-3-1-1-1-----------------5-5-------------5-------------------|
    D:-1-1-1-1-1-1-----------------3-3-5-5-5-5-5-5-------------------0-1-1-1-1-1-1-1-1-|

    The "What the *** is that?" part

    G:----------------------------------------------------------------------------------------------|
    D:----------------------------------------------------------------------------------------------|
    A:---------0-2--3--5--6-0-2-3--------0-2--------0-2--------0-2-3--------0-2--------0-2-3--------|
    D:-0-------0-2--3--5--6-0-2-3--------0-2--------0-2--------0-2-3--------0-2--------0-2-3--------|

    G:-------------------------------------------------------------------------------------|
    D:-------------------------------------------------------------------------------------|
    A:-0-2--------0-2-3--------0-2--------0-2--3--5--6-0-2---x-x-x-x-x-0-2-3-x-x-x-x-x-0-2-|
    D:-0-2--------0-2-3--------0-2--------0-2--3--5--6-0-2---x-x-x-x-x-0-2-3-x-x-x-x-x-0-2-|

    G:---------------------------------------------------------------------------------|
    D:---------------------------------------------------------------------------------|
    A:-x-x-x-x-x-0-2-3-x-x-x-x-x-0-2---x-x-x-x-x-0-2-3-x-x-x-x-x-0-2---x-x-x-x-x-0-2-3-|
    D:-x-x-x-x-x-0-2-3-x-x-x-x-x-0-2---x-x-x-x-x-0-2-3-x-x-x-x-x-0-2---x-x-x-x-x-0-2-3-|

    Last Chorus

    G:---------------------------------------------------------------------------------|
    D:---------------------------------------------------------------------------------|
    A:---------------------------------------------1-1-3-3-3-1-1-1---------------------|
    D:-5-5-5-5-5-5-5-5-5-5-5-5-5-5-5-0-1-1-1-1-1-1-----------------3-3-5-5-5-5-5-5-5-5-|

    G:-------------------------------------------------------------------------------------------|
    D:-------------------------------------------------10/12----10/12----10/12----10/12----10/12-|
    A:-----------------------------1-1-3-3-3-1-1----10-------10-------10-------10-------10-------|
    D:-5-5-5-5-5-5-5-0-1-1-1-1-1-1---------------3/----------------------------------------------|

    G:--------------------------------------------------------------------------------|
    D:-----6/8---6/8---6/8---6/8---6/8------10/12----10/12----10/12----10/12----10/12-|
    A:-0-6-----6-----6-----6-----6-----0-10-------10-------10-------10-------10-------|
    D:--------------------------------------------------------------------------------|

    G:------------------------|
    D:-----6/8---6/8----------|
    A:-0-6-----6-----6--0-2-3-|
    D:------------------0-2-3-|