1. Please take 30 seconds to register your free account to remove most ads, post topics, make friends, earn reward points at our store, and more!  
     
    TalkBass.com has been uniting the low end since 1998.  Join us! :)

Good Tapping Exercise\Lines?

Discussion in 'Technique [BG]' started by Hookha, Apr 8, 2006.


  1. Hookha

    Hookha

    Nov 6, 2005
    do you have some nice&fun tapping lines\exercise??
     
  2. Minor
    -----------------10------------------
    ------------12--------12-------------
    -------12-------------------12-------
    --10-----------------------------10--


    Major
    -----------------11----------------------
    ------------12--------12-----------------
    -------12-------------------12-----------
    --10-----------------------------10------


    you can move these patterns all over the fretboard
     
  3. Victor Wooten's version of Norwegian Wood is pretty good for practicing tapping. Most parts are quite easy, but others will take much more time to lay down.
     

Share This Page