Psst... Ready to join TalkBass and start posting, make new friends, sell your gear, and more?  Register your free account in 30 seconds.

Greatful dead, Truckin tab

Discussion in 'Tablature and Notation [BG]' started by GEEZERBOB, Sep 19, 2002.


  1. GEEZERBOB

    GEEZERBOB

    Aug 20, 2002
    chicago
    Anyone got the tab for Truckin from the Dead or She Caught the Katy off the blues brothers soundtrack?
     
  2. Matthew Bryson

    Matthew Bryson Guest

    Jul 30, 2001
    I don't know if I'm right or wrong, but...I play truckin' like this...

    ---------------------------------------------
    -------------------------2---2----2----5----
    ---2---2---2---5----3---3----3------------
    -3---3---3-----------------------------------

    ---------------------------------------------
    ---4---4---4---7-----------------------------
    -5---5---5-------------2----------2-3-4-5-----
    --------------------3-----3--0--3-------------


    ------------------------------------------------------
    ----------------------------------------------2-2-2-2----
    -------------2-2-2-2-----2----3-3-3-3-------------3-
    -3-3-3-3--------------3-------------------------------


    the last line of tab repeats and then go back to the top. follows the vocal line. this tab doesn't attempt to indicate note duration.