1. Please take 30 seconds to register your free account to remove most ads, post topics, make friends, earn reward points at our store, and more!  

Green Day- Holiday (Is it right?)

Discussion in 'Tablature and Notation [BG]' started by dain bramage, Dec 28, 2006.


  1. Ok, my question is about the bridge part. I'm finding all sorts of tabs on the net, all different. Can someone tell me if this is right?

    G|---------------------------------|
    D|-------------1-|----------1-3---|
    A|----------4-1-3|-----------3-3--|
    E|1-1-3-4-4------|1-1-3-4-4-------|
     
  2. Ya that one sounds right, when I learned to Play it I played the Solo/Bridge this way. It gives you the same sound but for me the fingering is easier on this one.

    G|-------------------------------------------------|
    D|-------------------------------------------------|
    A|---------------4---6------------------6---8------|
    E|-11\-1-11-4-44---6---8--11\-1-11-4-44---8---10---|
     
  3. Crap, it's hard to re-learn something once you've drilled it int oyour head a certain way. But yeah your way sounds better.
     
  4. TheDarkReaver

    TheDarkReaver Banned

    Mar 20, 2006
    Lincolnshire, UK
    i played it like this:

    G|---------------------|----------------------|
    D|---------------------|---------------------|
    A|-------------4-1-6-3|-------------6-3-8-8\|
    E|1-1-3-4-4-4---------|1-1-3-4-4-4----------|

    i hate pure tab if i could put up the notatian as well i could...hey i could do that:

    holidayinterlude.
     

Share This Page

  1. This site uses cookies to help personalise content, tailor your experience and to keep you logged in if you register.
    By continuing to use this site, you are consenting to our use of cookies.