1. Please take 30 seconds to register your free account to remove most ads, post topics, make friends, earn reward points at our store, and more!  

Help on QOTSA "auto pilot " riff

Discussion in 'Technique [BG]' started by nearlyuseless, Jun 16, 2007.


  1. nearlyuseless

    nearlyuseless

    Jun 15, 2007
    hi can someone show me the riff for queens of the stone ages "auto pilot" (tabs please)
     
  2. MammaryVest

    MammaryVest

    Oct 18, 2006
    Stoneham, MA
    Is this from their new album? or from the first one? ( I don't have the first one). Sorry I can't help, I'm just curious cause I likes me 'dem
     
  3. BassIsFun17

    BassIsFun17

    Jan 16, 2006
    Atlanta
    its from the rated r album. second album if im not mistaken.
     
  4. Oreo

    Oreo

    Dec 26, 2005
    New York
    Biiiig bump.

    Code:
    Auto Pilot
    
    Tuning - C F Bb Eb
    
    riff 1:
    -----------------------------------|
    ---------------4-4-4--6-6-6-6-6-6---|
    ---6-6---4/6-6---------------------|
    -----------------------------------|
    
    chorus riff:
    ---------------------------------------------------------------------|
    ---------------------------------------------------------------------|
    ---6-6-6-6-6-6-6-6-----------------4-4-4-4-4-4-4-4-------------------|
    -------------------7-7-7-7-7-7-7-7-----------------4-4-4-4-4-4-4-4---|
    
    riff 2:
    ---------------------------------------------------------------|
    ---8-8-8-8-8-8-8-8--9-9-9-9-9-9-9-9--10-10-10-10-10-10-10-10---|
    ---------------------------------------------------------------|
    ---------------------------------------------------------------|
    If you dont want to tune down to C, just play all the notes four frets higher
     
  5. Primary

    Primary TB Assistant

    Here are some related products that TB members are talking about. Clicking on a product will take you to TB’s partner, Primary, where you can find links to TB discussions about these products.

     
    Feb 27, 2021

Share This Page

  1. This site uses cookies to help personalise content, tailor your experience and to keep you logged in if you register.
    By continuing to use this site, you are consenting to our use of cookies.