Psst... Ready to join TalkBass and start posting, make new friends, sell your gear, and more?  Register your free account in 30 seconds.

Help!!!! TOTO tabs wanted!!!

Discussion in 'Tablature and Notation [BG]' started by Nick Aron, Dec 10, 2002.


  1. Nick Aron

    Nick Aron

    Jul 10, 2002
    Rome
    Hi all,

    I need a help!! :(I'm looking for a Toto tab...it's "ONE ROAD" fro the cd Mindfields...

    I wrote down the first part but i have some problem with the chorus...:confused:
    does anyone have this tab, or even sheet music?

    or

    can anyone help me finding the notes?


    Thank you all:)
     
  2. poppamies

    poppamies

    Dec 15, 2002
    I'll do the song for you a.s.a.p.

    poppamies, finland
     
  3. Nick Aron

    Nick Aron

    Jul 10, 2002
    Rome
    THANK YOU VERY MUCH!!!!!!

    If this can help you: I already did the intro, the verse, and the first bridge. I need the chorus and the solo part the most...cause the 2nd verse & bridge have just a few variation on the theme...

    So try to find the chorus...

    I think He starts with a kind of scale: A-G-E-A-B-C
    then D and then some other kind of scale to turn back on the scale i wrote...

    Check if it's correct ;)


    THANK YOU AGAIN FOR YOUR HELP!!!


    Bye
     
  4. poppamies

    poppamies

    Dec 15, 2002
    toto/one_road(chorus).btab

    TablEdited by Jan Bjorklund
    Tuning : B E A D G Time Signature: 4/4

    |One road to the | promised land |
    |--------------------------------|--------------------------------|
    |2-------------------------------|------------7-----7-----5-------|
    |--2---------3-------------3-4---|5-------------------------------|
    |----0-----3---------------------|--------------------------------|
    |--------------------------------|--------------------------------|

    |--------------------------------|--------------------------------|
    |2-------------------------------|--------------------------------|
    |--2---------3-------------3-4---|5-------5-------5---------------|
    |----0-----3---------------------|------------------------2-------|
    |--------------------------------|--------------3-----------------|

    |--------------------------------|--------------------------------|
    |2-------------------------------|--------------------------------|
    |--------------3-----------3-4---|5-------5-----------------3-4---|
    |--------0--3--------------------|-------------5------------------|
    |--------------------------------|--------------------------------|

    |------------------------5-------|4-------4-------4---------------|
    |------------------2--5----------|--------------------------------|
    |3-------------------------------|--------------------------------|
    |--------------------------------|--------------------------------|
    |--------------------------------|--------------------------------|



    toto/one_road(solo).btab

    TablEdited by Jan Bjorklund
    Tuning : B E A D G Time Signature: 4/4

    Solo
    |--------------------------------|--------------------------------|
    |--------------------------------|--------------------------------|
    |------------0-------------2-3---|4-------------------------------|
    |2-------------------------------|------------------------0-------|
    |--------------------------------|------------2-------------------|

    |--------------------------------|--------------------------------|
    |--------------------------------|------------------2-------------|
    |-----------0-0-0----------0-2---|4------------4--4---4-----------|
    |2-------------------------------|------------------------4-------|
    |--------------------------------|--------------------------------|

    |--------------------------------|--------------------------------|
    |--------------------------------|--------------------------------|
    |--------------0-0----------0-2--|4-------4-----4-----------------|
    |2-------2-----------------------|--------------------------------|
    |--------------------------------|--------------------------------|

    | I'm going to the |
    |--------------------------------|--------------------------------|
    |2-------------------------------|------------------7-----7-------|
    |--2-----2---3---3---------3-4---|5-------5-----------------------|
    |----3-----3---------------------|------------5-------------------|
    |--------------------------------|--------------------------------|

    |--------------------------------|--------------------------------|
    |2---2---------------------------|--------------------4-----------|
    |--2---------3-------------3-4---|5-------5-----5---------7-------|
    |--------0-----------------------|--------------------------------|
    |--------------------------------|--------------------------------|


    |--------------------------------|
    |2-------------------------------|
    |--2---------3-------------3-4---|
    |----0-----3---------------------|
    |--------------------------------|
     
  5. Nick Aron

    Nick Aron

    Jul 10, 2002
    Rome
    Thank you very much Jan ;)

    i'm going to check it soon, but i know it's right ;)


    I'll tell you my opinions.Check it out :p


    Bye
     
  6. ah toto tabs if only i read this post sooner lol guy at my school is ona the dudes kids uh lukether or what not it wuda been a great excuse to talk music with the guy
     
  7. Nick Aron

    Nick Aron

    Jul 10, 2002
    Rome
    :rolleyes:

    Could you translate.... -_-'

    Bye
     
  8. ok one time slowly

    I KNOW THE SON OF ONE OF THE BAND MEMBERS IN TOTO
     
  9. Nick Aron

    Nick Aron

    Jul 10, 2002
    Rome
    :eek: :eek: :eek:


    REALLY?!?! Cool!

    Well if any time he's at your home I wouldlike to talk with him about toto...maybe he could get some music sheet for free!:D

    Thank you! ;)

    See you soon.

    P.s. - Icq in the profile
     
  10. yea hey his aim screenname is powrman5000 or 500 something like that i forget because we dont really get along that well anymore and hes a little bitch when it comes to like music and stuff hes one of those kinda guys that gets all the gear anyone could possibly want but dosnt have the patience to let anyone try it out or anything