Psst... Ready to join TalkBass and start posting, make new friends, sell your gear, and more?  Register your free account in 30 seconds.

Help

Discussion in 'Tablature and Notation [BG]' started by kellym8, Jun 8, 2004.


  1. kellym8

    kellym8 Guest

    Jun 8, 2004
    Does anyone have or know where I can find tab for UB40's "The Way You Do the Things You Do"?
     
  2. Try this

    G--------------------------------------------------------
    D------5-5-5-5------5-------5-5-5-5---------------------
    A--2-5----------7-8-----2-5----------3-5----------------
    E------------------------------------------3-------------

    The first riff

    G--------------------------------------------------------
    D-----------------------------5-5-5-5-------------------
    A-------3-3-3-3------3---2-5----------3-5---------------
    E--3-5-----------3-5-----------------------3-------------

    G---------------------------------------------------------
    D---------------------------------------------------------
    A--0--3-5-5-5-5--0--2-3----0--3-5-5-5-5--0--2-3--------
    E---------------------------------------------------------

    Here's another two of Earl's riffs

    G---------------------------------------
    D---------------------------------------
    A-------------3--2----------------------
    E--2-3-3-3-3--------2-3-3-3-3----5--3--

    Finally the interlude riff
    Anyway Enjoy :bassist: