1. Please take 30 seconds to register your free account to remove most ads, post topics, make friends, earn reward points at our store, and more!  

hendrix helper....

Discussion in 'Tablature and Notation [BG]' started by ProfGumby, Sep 3, 2008.


  1. ProfGumby

    ProfGumby

    Jan 15, 2007
    Michigan's U.P.
    How do!

    I am looking for a bit of help with tabbing the chorus for Hendrix's Wait Until Tomorrow. I have re tabbed the verse but in the third verse it is different, but I can get it, I think. But in the chorus riff, I seem to be lost....

    This is what I can find, but alas...well you know..
    Anyway, I cannot seem to get this...

    chorus riff
    G|---------------------|
    D|---------4-----------|
    A|--6-46664-------4---|
    E|0------------4h6-240|

    Any help in correcting this? Or am I just missing something?
     
  2. I'm pretty sure he's playing half a step down (or at least the low E is)..so tune down, use a 5er, or play an octave up with a palm mute and crank the bass freq on your amp :p

    The general gist is:
    g--------------------------------------------
    d--------------------------------------------
    a----4---4h6---4h6-4h6-------4--------------
    e--------------------------------4h6--4h6--4-6-
    b-4------------------------4------------------


    in the latter choruses he adds more funky feel:
    g-
    d-
    a----4---*-4h6-*-4h6---------4------4------------
    e--------------------------------4h6-----6-4-6----
    b-4-----------------------4---------------------4
     

Share This Page

  1. This site uses cookies to help personalise content, tailor your experience and to keep you logged in if you register.
    By continuing to use this site, you are consenting to our use of cookies.