Psst... Ready to join TalkBass and start posting, make new friends, sell your gear, and more?  Register your free account in 30 seconds.

Heres a challange for ya

Discussion in 'Tablature and Notation [BG]' started by Bodom, Jan 10, 2003.


  1. Bodom

    Bodom

    Aug 31, 2002
    If anyone would try to figure out "Hey Pachuco" played bye the Royal Crew Revue whice is fetaurde in the film "The Mask" (The Dance scene in the end)
    Yes i know its a doubble bass but if anyone could tab it for a a electric bass i'd be very happy :)
     
  2. you could ask the double bass guys what they think it is on double bass, then you could figure it out on electric, or am i just having a brain fart here?
     
  3. Maybe I am having a brain fart but wouldnt it be the same thing?
     
  4. Nick Gann

    Nick Gann Talkbass' Tubist in Residence

    Mar 24, 2002
    Silver Spring, MD
    haha yeah, it would be the same thing, but I doubt a double basser will be willing to write it in tab ;)
     
  5. Matt Till

    Matt Till

    Jun 1, 2002
    Edinboro, PA
    I decline your challange. For it is one that I am too lazy to take on. So it appears you win this round Bodom, but I shall return!
     
  6. Murtz

    Murtz

    Jun 27, 2001
    aha! :cool:
     
  7. jani_bjorklund

    jani_bjorklund

    May 22, 2002
    Finland

    Hey Bodom! I just tabbed the first parts of the song. If you need moore of it mail me. Also mail me any corrections/suggestions since I'm no familiar with the song.

    Jan, Finland

    royal_crown_revue/hey_pachuco.btab

    TablEdited by Jan Bjorklund for Bodom
    Tuning : E A D G Time Signature: 4/4

    tempo 136
    |--------------------------------|--------------------------------|
    |---four bars drum solo intro----|--------------------------------|
    |--------------------------------|----1-------3-------5-------7---|
    |--------------------------------|3-------5-5-----6-------8-------|


    |--------------------------------|--------------------------------|
    |----3-------5-------7-7-5---8---|7-------5-5-----3-------2-2-----|
    |5-------7-7-----8---------------|----8-------7-------5-------3---|
    |--------------------------------|--------------------------------|


    |--------------------------------|--------------------------------|
    |--------------------------------|--------------------------------|
    |5-------3-3-----1-------0-0-----|----1-------3-------5-------7---|
    |----6-------5-------3-------1---|3-------5-5-----6-------8-8-----|


    |--------------------------------|--------------------------------|
    |----3-------5-------7---5---8---|7-------5-5-----3-------2-2-----|
    |5-------7-7-----8---------------|----8-------7-------5-------3---|
    |--------------------------------|--------------------------------|


    |--------------------------------|--------------------------------|
    |--------------------------------|--------------------------------|
    |5-------3-3-----1-------0-0-----|----1-------3-------5-------7---|
    |----6-------5-------3-------1---|3-------5-5-----6-------8-8-----|


    |--------------------------------|--------------------------------|
    |----3-------5-------7---5-5-----|7-------5-5-----3-------2-2-----|
    |5-------7-7-----8-----------7---|----8-------7-------5-------3---|
    |--------------------------------|--------------------------------|


    |--------------------------------|--------------------------------|
    |--------------------------------|--------------------------------|
    |5-------------------------------|--------------------------------|
    |--------------------------------|--------------------------------|


    |0-------------------------------|0-------------------------------|
    |----3---2---1---0---2---3---2---|----3---2---1---0---2---3---4---|
    |--------------------------------|--------------------------------|
    |--------------------------------|--------------------------------|


    |0-------------------------------|--------------------------------|
    |----3---2---1---0---------------|0---0-----------0---0---2---3---|
    |--------------------2---3---4---|--------0---0-------------------|
    |--------------------------------|--------------------------------|


    |0-------------------------------|0-------------------------------|
    |----3---2---1---0---2---3---4---|----3---2---1---0---2---2---4---|
    |--------------------------------|--------------------------------|
    |--------------------------------|--------------------------------|


    |0-------------------------------|--------------------------------|
    |----3---2---1---0---------------|0---0-----------0---0-------0---|
    |--------------------2---3---4---|--------0---0-----------0-------|
    |--------------------------------|--------------------------------|


    |0---0-----------0---0-----------|0---0-----------0---0-----------|
    |--------0---0-----------0---0---|--------0---0-----------0---3---|
    |--------------------------------|--------------------------------|
    |--------------------------------|--------------------------------|


    |0---0-----------0---0-----------|--------------------------------|
    |--------0---0-----------0---0---|0---0-----------0---0---0---4---|
    |--------------------------------|--------0---0-------------------|
    |--------------------------------|--------------------------------|


    |0---0-----------0---0-----------|0---0-----------0---0-----------|
    |--------0---0-----------0---4---|--------0---0-----------0---4---|
    |--------------------------------|--------------------------------|
    |--------------------------------|--------------------------------|


    |0---0-----------0---0-----------|--------------------------------|
    |--------0---0-----------1---0---|0---0-----------0---0-------0---|
    |--------------------------------|--------0---0-----------0-------|
    |--------------------------------|--------------------------------|


    |0---0---------------------------|0---0---------------------------|
    |--------3---3---2---2---0---0---|--------3---3---1---1---0---3---|
    |--------------------------------|--------------------------------|
    |--------------------------------|--------------------------------|


    |0---0---------------------------|--------------------------------|
    |--------3---3---1---1---0---0---|0-------------------------------|
    |--------------------------------|----2---3---0---2-------0-------|
    |--------------------------------|--------------------3-------2---|


    |0---0---------------------------|0---0---------------------------|
    |--------3---3---1---1---0---0---|--------3---3---1---1---0---3---|
    |--------------------------------|--------------------------------|
    |--------------------------------|--------------------------------|


    |0---0---------------------------|--------------------------------|
    |--------3---3---1---1---0---0---|0-------------------------------|
    |--------------------------------|-this is until the "swing"part--|
    |--------------------------------|--------------------------------|



    Created with TablEdit http://www.tabledit.com/