1. Please take 30 seconds to register your free account to remove most ads, post topics, make friends, earn reward points at our store, and more!  

How to play this?

Discussion in 'Miscellaneous [BG]' started by dain bramage, Mar 24, 2006.


  1. woah. that is very wierd. Cool though. I'm no help with playing it though.
     
  2. DougP

    DougP

    Sep 4, 2001
    whats a link to the tab? it may be wrong and that can lead you down the wrong road.

    sounds picked...if that helps you any.
     
  3. Yeah, Greg K picks.
    Intro

    G]---------------------
    D]---------------------
    A]---5-7-7-7---7-7-7--- Repeat
    E]-7---------0-------0-

    Looks extremely simple, so the tab must be wrong. Because it sure doesn't sound simple.
     
  4. And more...

    G|-------------
    D|-------------
    A|-77-77---5-8-
    E|---0---7-----

    and another

    This is another version I found.

    ------------------------------------------------------------------------------
    ------------------------------------------------------------------------------
    -7-7-7---7-7-7---7-5-8--------------------------------------------------------
    -------0-------0--------------------------------------------------------------
     
  5. I think I might have posted this in the wrong section....

    Sorry about the triple post.
     
  6. Seigi

    Seigi

    Jul 3, 2005
    tabs = evil

    I'd normally say, "Sheet music ftw", but nobody uses it anymore. =/
     
  7. Sounds pretty simple to me...it's just a fast picked pattern repeated over and over. Can't help you with the tabs though, I've never really used them. Get Audacity or some program like that that'll slow it down without changing the pitch and work it out. Have fun!
    -Alex
     
  8. Is audacity free?

    What am I saying, everything's free on limewire!
     
  9. DougP

    DougP

    Sep 4, 2001
    yup Audacity is free.
     

Share This Page

  1. This site uses cookies to help personalise content, tailor your experience and to keep you logged in if you register.
    By continuing to use this site, you are consenting to our use of cookies.