Dismiss Notice

Psst... Ready to join TalkBass and start posting, make new friends, sell your gear, and more?  Register your free account in 30 seconds.

I need help with some tabs!

Discussion in 'Tablature and Notation [BG]' started by mike0033, Feb 20, 2003.


  1. I already posted a thread for a Doobie tab but there are a couple more that I kind of need:
    Eyes of the World - Grateful Dead
    Take the World by Storm - The Big Wu
    If you can help please do.
    Thanks
     
  2. jani_bjorklund

    jani_bjorklund

    May 22, 2002
    Finland
    Here you have a couple of dozen bars for "Eyes of the world". If you need moore of it let me know.
    Sorry but I didn't find the "Big Wu" song on KaZaa.
    I downloaded "Black Water" and I'll try to do it soon.

    greatful_dead/eyes_of_the_world.btab

    Basstab by Jan Bjorklund, Finland;
    jani_bjorklund@yahoo.se
    You are welcome to request for basstabs!
    Bienvenidos a pedirme transcripciones para el bajo!

    TablEdited by Jan Bjorklund for Mike
    Tuning : E A D G Time Signature: 4/4

    tempo 105
    |--------------------------------|--------------------------------|
    |--------------------------------|--------------------------------|
    |7---7---------------------------|7---7---------------7-----------|
    |--------------------7---7-7-9---|------------------------7---9---|


    |--------------------------------|----------------------------6---|
    |--------------------------------|--------------------6---9-------|
    |7-------------7-----9-----------|7-------------9-----------------|
    |------------------------7---9---|--------------------------------|


    |--------------------------------|--------------------------------|
    |--------------------------------|--------------------------------|
    |7---7-----------7---7-----------|--------------------------------|
    |--------------7---------------0-|5-----------5---5---5-------5---|


    |--------------------------------|--------------------------------|
    |--------------------------------|9---9---9-------7-7-----7-------|
    |7---7---------6h7---6---7-------|--------------9-------7-----9---|
    |--------------------------------|--------------------------------|


    |--------------------------------|--------------------------------|
    |----------------------------6---|7---------7-7---6---7---7-------|
    |7---7-----7-----6---6---7-------|----------------------------6---|
    |--------------------------------|--------------------------------|


    |--------------------------------|----------------9---------------|
    |----------------------------6---|9-9-----9---7-------7-----------|
    |7---7-------7-5---7-6---7-------|--------------------------7-----|
    |--------------------------------|--------------------------------|


    |------------------------4---4---|5h6-----9---6-------6---6-------|
    |7---7-----------7---7-----------|--------------------------------|
    |--------------------------------|--------------------------------|
    |--------------------------------|--------------------------------|

    |
    |--------------------------------|--------------------------------|
    |9---9---------------------------|--------------------------7-----|
    |----------9---9-----------------|------------7-------9-------9---|
    |----------------7---7-----------|5---5---------------------------|


    |5h6-5p6-6---6-------------------|4---4---------------------------|
    |--------------------------------|----------------4---4---6---6---|
    |----------------------7---8-9---|--------------------------------|
    |--------------------------------|--------------------------------|


    |--------------------------------|--------------------------------|
    |--------------------------------|--------------------------------|
    |--------4---5---5-------5-------|--------------------------------|
    |5---5-----------------------5---|5---5-------5-------5-------0---|


    |--------------------------------|--------------------------------|
    |--------------------------6-6---|--------------------------------|
    |7---7-----------7-----7---------|7-------7---6-------6---6-7-----|
    |--------------------------------|--------------------------------|


    |------------4---5-5-----5---5---|--------------------------------|
    |7---7---------------------------|--------------------------------|
    |--------------------------------|--------------------------0-2---|
    |--------------------------------|3---------------3-----3---------|


    Transcribe! 6.0 transcription http://www.seventhstring.demon.co.uk/
    Created with TablEdit http://www.tabledit.com/
     
  3. Wow!! Thanks for the quick response, this will help me a ton. I downloaded that Big Wu song from Kazaa a while ago, you may want to try again. Anyway, I'm not trying to pressure you. Thanks again and keep up the good work.