Dismiss Notice

Psst... Ready to join TalkBass and start posting, make new friends, sell your gear, and more?  Register your free account in 30 seconds.

I need some Blues tabs

Discussion in 'Tablature and Notation [BG]' started by de la mocha, Oct 1, 2005.


  1. de la mocha

    de la mocha

    Aug 20, 2005
    NEW JERSEY
    I love the blues. Anybody wanna donate any tabs?
     
  2. Finger Blister

    Finger Blister

    Jul 8, 2003

    You'll have to guess what it is.




    ||----------------|---------------|----------------|-----------------|
    ||----------------|---------------|----------------|-----------3-----|
    ||----------0-4-3-|-1----4--4-----|----------------|---------4---4-3-|
    ||-2~--2----------|-------------0-|-2----2---2---0-|-2----2----------|

    |-----------------|---------------|----------------|-----------------|
    |-----------------|---------------|----------------|-----------------|
    |-2---2---2---0-1-|-2---4----4--0-|----------------|-----0----2----3-|
    |-----------------|---------------|-1---1----1---0-|-2---------------|

    |-----------------|---------------|----------------|-----------------||
    |-----------------|---------------|----------------|-----------------||
    |-4----4---4--0-1-|-2---2---4-----|----------------|-----------------||
    |-----------------|-----------0-1-|-2---2--2--2--0-|-2---2--2---2--0-||