Psst... Ready to join TalkBass and start posting, make new friends, sell your gear, and more?  Register your free account in 30 seconds.

ibanez five-strings

Discussion in 'Basses [BG]' started by ducttapefattaco, Jul 25, 2003.


  1. :bassist:
    hey everyone!
    im getting a new ibanez 5-string! :D
    im saving for it, too young to get a job. :(
    im selling lemonade on the corner
    to raise money :p
    only $279 more to go!
    :bassist:

    BTW i made up this bass riff, tell me how u like it

    G ----------------------------------
    D -----2----------------------------
    A -----------3--3---2--0------------
    E --0-0--0--------------------------
     
  2. oops. i did it wrong last time.:(
    here it is

    G -----------------------------
    A ------2----------------------
    D ----------3-3-2-0------------
    E --0-0---0---------3----------