1. Please take 30 seconds to register your free account to remove most ads, post topics, make friends, earn reward points at our store, and more!  

I'll Take You There

Discussion in 'Tablature and Notation [BG]' started by jnewmark, Oct 21, 2013.


  1. jnewmark

    jnewmark Just wanna play the groove. Supporting Member

    Aug 31, 2006
    Stax 1966
    Third St. Cigar Records staff musician.
    Anybody got a good tab for that little bass run in the middle of I'll Take You There ?
     
  2. Captain Bob

    Captain Bob Supporting Member

    Jan 4, 2009
    Nashville
    as best as I can do in this format. There are hammer-ons and slides
    --------12-h-14-----12-slide----9-h10---------------------7-------------------------------10--------
    -14----------------------------------------10----------7--------10-----------12-------------
    ------------------------------------------------8---------------------10----------------
    ---------------------------------------------------------------------------8---------
    then..
    ----------------------------12 h 14-----12-slide-9-h-10-------------------------7--
    --10------------14------------------------------------------10------------7---------
    -------------------------------------------------------------------8--------------
    --------------------------------------------------------------------------------
    then
    -------------------------------------------
    -10------------------------------------------
    ------10-------------------------------------
    -------------8---------8------8------3---5---3--

    Hope that helps!
     
  3. Captain Bob

    Captain Bob Supporting Member

    Jan 4, 2009
    Nashville
    Have you tried it?
     

Share This Page

  1. This site uses cookies to help personalise content, tailor your experience and to keep you logged in if you register.
    By continuing to use this site, you are consenting to our use of cookies.